Foster The People - Dont Stop Color On The Walls Chords & Tabs

 

Dont Stop Color On The Walls Chords & Tabs

Foster The People Chords & Tabs

Version: 1 Type: Bass Tab 0 ratings
1 star 2 stars 3 stars 4 stars 5 stars
comments

Dont Stop Color On The Walls Bass Tab

   
-----------------------------------------------------------------------------
(Dont Stop) Color on the Walls-Foster the People
-----------------------------------------------------------------------------

Tabbed By :Joey
e-mail:

Hello, I have been playing the bass for about a year now, so I decided to tab a song! 
This is my 1st tab so any constructive criticism is greatly appreciated and enjoy this 
great song.
Tuning:

Intro x2
G|--------------------------------------------------------------------------|
D|-----------------0-05555--------------------------------------------------|
A|2-22-2-2-22-2-0-0-------0-0-0---------------------------------------------|
E|--------------------------------------------------------------------------|

Verse x3
G|--------------------------------------------------------------------------|
D|-----------------0-05555--------------------------------------------------|
A|2-22-2-2-22-2-0-0-------0-0-0---------------------------------------------|
E|--------------------------------------------------------------------------|
[ Tab from: http://www.guitartabs.cc/tabs/f/foster_the_people/dont_stop_color_on_the_walls_btab.html ]
Pre-Chorus x1
G|--------------------------------------------------------------------------|
D|--------------------------------------------------------------------------|
A|2-22-2-2-22-2-0-----------------------------------------------------------|
E|--------------------------------------------------------------------------|

Chorus x2
G|--------------------------------------------------------------------------|
D|5-55-5-5-5----------------------------------------------------------------|
A|----------0-0-------------------------------------------------------------|
E|--------------------------------------------------------------------------|

Intro x1
Pre-Chorus x1
Verse x3
Pre-Chorus x1
Chorus x4
Verse x4

Last Chorus
G|--------------------------------------------------------------------------|
D|--------------------------------------------------------------------------|
A|-----------2-0-------------------------------------2(x32)-----------------|
E|--------------------------------------------------------------------------|


Outro x4
G|--------------------------------------------------------------------------|
D|--------------------------------------------------------------------------|
A|-2-22-2-2-20-0------------------------------------------------------------|
E|--------------------------------------------------------------------------|
End on a B(a|-2-)
| /  slide up
| \  slide down
| h  hammer-on
| p  pull-off
| ~  vibrato
| +  harmonic
| x  Mute note
===============================================================================
Comments