Foster The People - Call It What You Want Chords & Tabs

 

Call It What You Want Chords & Tabs

Foster The People Chords & Tabs

Version: 1 Type: Bass Tab 0 ratings
1 star 2 stars 3 stars 4 stars 5 stars
comments

Call It What You Want Bass Tab

Call It What You Want -- Foster the People
Min 0:17 (Optional)
G-----------------------------------------------------------------|
D-----------1-0-----------------------1-3------------3-1----------| x2
A1-3------------3-1-1----1-0-1-3------------------------1---------|
E------1--------------------------------------1-1-----------------|

Min 0:34, 1:25, 2:16, 3:41
G------------------------------------------------------------------------------|
D---1-3---------1-3----3-5------------5----------------------------------------| x2
A-3-------1h3------------------------------6-6--356-5-3------------------------|
E----------------------1-------3-3---3-----------------------------------------|




Min 0:51, 1:42
G---------------------------------------------------------------------------------|
D---------15--------------------15-17-----------------17---18----18--------------| x2
A-----15--------------------------------------------------------------------------|
E-13-------------13-13---13-----------15-15---15-----16----16-----13-------------|
[ Tab from: http://www.guitartabs.cc/tabs/f/foster_the_people/call_it_what_you_want_btab.html ]
Min 1:08,1:58
G-------------------------------------------------------------------------17-----------------|
D----3-1--------------15-17------------------17-----18----15h17-----17-15--------------------|
A-1-----------------------------------------------------------------------------------15-15--|
E-----------1-1---13------------15-15---15-----16---------------------------------------------|

G----------------------------------------------------------------------------------|
D----3-1--------------15-17------------------17-----18-----18---------------------|
A-1--------------------------------------------------------------------------------|
E-----------1-1---13------------15-15---15-----16-----16------1---1-1--------------|

Min 2:33 - 2:49
G----15h17----

Min 2:50 (Optional)
E--4---8-6---3----3------------------------------------------------------ x2

Min 3:07
G-------------------------------------------------------------------|
D-------------6-----------------------------------------------------| x4
A-----------6---6-------------------------------------6-4-----------|
E---4-4-4--------8-8-6--8-6-0-3-3-3---3-3-3------6------------------|
Comments