Fosh - Wild Child Chords & Tabs

 

Wild Child Chords & Tabs

Fosh Chords & Tabs

Version: 1 Type: Tab 0 ratings
1 star 2 stars 3 stars 4 stars 5 stars
comments

Wild Child Tab

Author/Artist: F.O.S.H. 
Title: Wild Child 
------------------------------------------------------------------------------ 
------------------------------------------------------------------------------ 
-----0-----0---------5-------7------------------------------------------------ 
---2-----2---2-----5---5---7---7---------------------------------------------- 
-0-----0-------0-3-------5---------------------------------------------------- 
------------------------------------------------------------------------------ 
  INTRO & VERSE- JOHNNYS PART                                                  

----------------------|------------------------------------------------------- 
----------------------|------------------------------------------------------- 
---5-7----------------|-2-----------5-----7----------------------------------- 
-7--------------------|-2-----------5-----7----------------------------------- 
----------------------|-0-0-0-0-0-0-3-3-3-5-5-5------------------------------- 
----------------------|------------------------------------------------------- 
 MONK PLAYS THIS ALOT   THEN THIS                                              

-----------------------------------------|------------------------------------ 
-----------------------------------------|------------------------------------ 
-2-2-2-2-2-2-2-5-5-x-x-7-7---------------|---5-5-5-7b-5----------------------- 
-2-2-2-2-2-2-2-5-5-x-x-7-7---------------|-7------------7--------------------- 
-0-0-0-0-0-0-0-3-3-x-x-5-5---------------|------------------------------------ 
-----------------------------------------|------------------------------------ 
 JOHNNY PLAYS THIS ONCE BEFORE THE CHORUS  MONK PLAYS THIS                     
[ Tab from: http://www.guitartabs.cc/tabs/f/fosh/wild_child_tab.html ]
--------------------------|---------------------------|----------------------- 
--------------------------|---------------------------|----------------------- 
-2-2-2---------5-5-7-7-7--|-2-2-2---------5-5/7-7-7\5-|-2--------------------- 
-2-2-2-2-2-2---5-5-7-7-7--|-2-2-2-2-2-2---5---7-7-7---|-2--------------------- 
-0-0-0-3-3-3---3-3-5-5-5--|-0-0-0-3-3-3---3---5-5-5---|-0--------------------- 
-------------3------------|-------------3-------------|----------------------- 
 CHORUS- JOHNNY PLAYS THIS  MONK PLAYS THIS             BOTH END ON THIS       

----------------------------------|------------------------------------------- 
----------------------------------|------------------------------------------- 
-2-2---2---2---2------------------|-2-2---2---2---2-2-2---2---2--------------- 
-2-2-2-2---2-2-2------------------|-2-2-2-2---2-2-2-2-2-2-2---2-2------------- 
-0-0-3-0---0-3-0------------------|-0-0-3-0---0-3-0-0-0-3-0---0-3b------------ 
---------3------------------------|---------3---------------3----------------- 
 3RD VERSE/SOLO- JOHNNY PLAYS THIS  THIS IS THE 2ND PART W/ NO SINGING         

----------------|-------12-15-12|-------------------------------------12------ 
----12-15-12----|-12-15---------|-15-12----12-15-12----12-15-12----12--------- 
-14----------14-|---------------|-------14----------14----------14------------ 
----------------|---------------|--------------------------------------------- 
----------------|---------------|--------------------------------------------- 
----------------|---------------|--------------------------------------------- 
 MONK'S SOLO THINGY                                                            

-----------------|----|-------12-15-12-|---------------|-------12-15-12------- 
----12-15-12-----|----|-12-15----------|----12-15-12---|-12-15---------------- 
-14----------14--|-17\|----------------|-14----------14|---------------------- 
-----------------|----|----------------|---------------|---------------------- 
-----------------|----|----------------|---------------|---------------------- 
-----------------|----|----------------|---------------|---------------------- 
                                        repeat these 2 measures over & over   
Comments