Forward Russia - Thirteen Chords & Tabs

 

Thirteen Chords & Tabs

Forward Russia Chords & Tabs

Version: 1 Type: Bass Tab

Thirteen Bass Tab

Intro

-----------------------------------|
-----------------------------------|
----------8~---------------8~------|
-10~--------------10~--------------|

--------------------------------------------------|
--------------------------------------------------|
-----------------88888888----------------88888888-|
-1010101010101010--------1010101010101010---------|

Verse 1

----------------------------|
----------------------------|
-8888------------------10-8-|
-----10-88-10101010-88------|

------------------|
------------------|
------------------|
-8888666655555333-

----------------------------|
----------------------------|
-8888------------------10-8-|
-----10-88-10101010-88------|

------------------|
------------------|
------------------|
-8888666655555333-

----------------------------|
----------------------------|
-----------------------10-8-|
-----------10101010-88------|

------------------|
------------------|
------------------|
-8888666655555333-

----------------------------|
----------------------------|
-8888------------------10-8-|
-----10-88-10101010-88------|

------------------|
------------------|
------------------|
-8888666655555333-

Bridge

---------------------|
---------------------|
---------------------|
-1010-1010-1010-1010-|

------------------|
------------------|
------------------|
-1111111111111111-

---------------------|
---------------------|
---------------------|
-1010-1010-1010-1010-|

------------------|
------------------|
-8888888888888888-
------------------

Pre Chorus

---------------------------------|
---------------------------------|
---------------------------------|
-10------10------10------10------|

--------------------------------------------|
--------------------------------------------|
-11-5-7-11--11-5-7-11--11-5-7-11--11-5-7-11-|
--------------------------------------------|

--------------------------------------------|
--------------------------------------------|
--------------------------------------------|
-10-5-7-10--10-5-7-10--10-5-7-10--10-5-7-10-|

---------------------------------|
---------------------------------|
-11------11------11------11------|
---------------------------------|

Chorus

------------------------------------------|
------------------------------------------|
-----------------88888888-----------------|
-1010101010101010--------6666666688888888-|

------------------------------------------|
------------------------------------------|
-----------------88888888-----------------|
-1010101010101010--------6666666688888888-|

------------------------------------------|
------------------------------------------|
-----------------88888888-----------------|
-1010101010101010--------6666666688888888-|

------------------------------------------|
------------------------------------------|
-----------------88888888-----------------|
-1010101010101010--------6666666688888888-|

---------------------------|
---------------------------|
---------------------------|
-1010-1010-1010-1010-10-10-|

Verse 2
[ Tab from: http://www.guitartabs.cc/tabs/f/forward_russia/thirteen_btab.html ]
----------------------------|
----------------------------|
-8888------------------10-8-|
-----10-88-10101010-88------|

----------------------------|
----------------------------|
-8888------------------10-8-|
-----10-88-10101010-88------|

----------------------------|
----------------------------|
-8888------------------10-8-|
-----10-88-10101010-88------|

------------------|
------------------|
------------------|
-8888666655555333-

----------------------------|
----------------------------|
-8888------------------10-8-|
-----10-88-10101010-88------|

------------------|
------------------|
------------------|
-8888666655555333-

Chorus

------------------------------------------|
------------------------------------------|
-----------------88888888-----------------|
-1010101010101010--------6666666688888888-|

------------------------------------------|
------------------------------------------|
-----------------88888888-----------------|
-1010101010101010--------6666666688888888-|

------------------------------------------|
------------------------------------------|
-----------------88888888-----------------|
-1010101010101010--------6666666688888888-|

------------------------------------------|
------------------------------------------|
-----------------88888888-----------------|
-1010101010101010--------6666666688888888-|

------------------|
------------------|
------------------|
-10/17~-----------|

------------------|
------------------|
------------------|
-55-55-55--88-8-8-|

------------------|
------------------|
------------------|
-55-55-55--88-8-8-|

------------------|
------------------|
------------------|
-55-55-55--88-8-8-|

--------------------------------------|
--------------------------------------|
-88888888--------88888888-------------|
---------88888888--------888810101010-|

------------------------------|
------------------------------|
-88888888--------88888888-----|
---------88888888--------8888-|

Chorus

------------------------------------------|
------------------------------------------|
-----------------88888888-----------------|
-1010101010101010--------6666666688888888-|

------------------------------------------|
------------------------------------------|
-----------------88888888-----------------|
-1010101010101010--------6666666688888888-|

------------------------------------------|
------------------------------------------|
-----------------88888888-----------------|
-1010101010101010--------6666666688888888-|

------------------------------------------|
------------------------------------------|
-----------------88888888-----------------|
-1010101010101010--------6666666688888888-|

Outro

---------------------------|
---------------------------|
---------------------------|
-1010-1010-1010-1010-10-10-|

---------------------------|
---------------------------|
---------------------------|
-1010-1010-1010-1010-10-10-|

---------------------------|
---------------------------|
---------------------------|
-1010-1010-1010-1010-10-10-|

---------------------------|
---------------------------|
---------------------------|
-1010-1010-1010-1010-10-10-|

-----
-----
-----
-10-