Forty Foot Echo - Save Me Chords & Tabs

 

Save Me Chords & Tabs

Forty Foot Echo Chords & Tabs

Version: 3 Type: Tab 0 ratings
1 star 2 stars 3 stars 4 stars 5 stars
comments

Save Me Tab

Forty Foot Echo - Save Me (drop D)
tabbed by Jeff Brus
brussy_@hotmail.com

This is as good as it gets right here kids, the best tab out there right now for this song.

Drop D Tuning DADGBA


Intro:

Guitar 1 Clean:

E ------------------------------------
B ------------------------------------
G --7-77--9--9------------------------
D --7-77--7--7-----11--11-11----7--7--
A --5-55--5--5-----9---9--9-----5--5--
D -----------------9---9--9-----5--5--

Guitar 2 Distorted: (0:05)

E ------------------------------------
B ------------------------------------
G --7-77--9--9------------------------
D --7-77--7--7-----11--11-11----7--7--
A --5-55--5--5-----9---9--9-----5--5--
D -----------------9---9--9-----5--5--

E ------------------------------------
B ------------------------------------
G --7-77--9--9------------------------
D --7-77--7--7-----11--11-11----7-----
A --5-55--5--5-----9---9--9-----5-----
D -----------------9---9--9-----5-----


Verse 1:

Guitar 1 Clean: (0:15)

E ------------------------------------
B ------------------------------------
G --7-77--9--9------------------------
D --7-77--7--7-----11--11-11----7--7--
A --5-55--5--5-----9---9--9-----5--5--
D -----------------9---9--9-----5--5-- X2

Sit around and lose myself, again
Never thought I'd wait, to realize

(0:25)

E ------------------------------------
B ------------------------------------
G --7-77--9--9------------------------
D --7-77--7--7-----11--11-11----11-11-
A --5-55--5--5-----9---9--9-----9--9--
D -----------------9---9--9-----9--9--

I can't hold on, to what you see

(0:30)

E ------------------------------------
B ------------------------------------
G ------------------------------------
D --9-99--9--9-----7--7---------------
A --7-77--7--7-----5--5---------------
D --7-77--7--7-----5--5---------------

And I can't move on, when you're down on your seat

(0:35)

E ------------------------------------
B ------------------------------------
G --7-77--9--9------------------------
D --7-77--7--7-----11--11-11----7--7--
A --5-55--5--5-----9---9--9-----5--5--
D -----------------9---9--9-----5--5-- X2

A mistake, is all I can remember
Trying to hold on, to all of my ways

Guitar 2 Distorted (P.M.): (0:35)

E ------------------------------------
B ------------------------------------
G --7-7-7-7-7-7-7-7-------------------
D --7-7-7-7-7-7-7-7-9-9-9-9-5-5-5-5---
A --5-5-5-5-5-5-5-5-9-9-9-9-5-5-5-5---
D ------------------9-9-9-9-5-5-5-5--- X2

 |-------------- P.M. ----------------|


Chorus:

Guitar 2 Heavy Distorted: (0:45)

E -------------------------------------------------
B -------------------------------------------------
G --7-xx-7-7---7-7-7-xx-9-9------------------------
D --5-xx-5-5---7-7-7-xx-7-7---9--xx-9-9---7--xx-7-7
A --5-xx-5-5---5-5-5-xx-5-5---9--xx-9-9---7--xx-7-7
D --5-xx-5-5------------------9--xx-9-9---7--xx-7-7

So save me, in my life
Just hold on, how could you realize

E -------------------------------------------
B -------------------------------------------
G --7-xx-7-7---7-7-7-xx-9-9------------------
D --5-xx-5-5---7-7-7-xx-7-7---9--xx-9-9---7--
A --5-xx-5-5---5-5-5-xx-5-5---9--xx-9-9---5--
D --5-xx-5-5------------------9--xx-9-9---5--


So save me, in my life
Just hold on, got to realize


Interlude:

Guitar 1 Distorted: (1:04)

E ------------------------------------
B ------------------------------------
G --7-77--9--9------------------------
D --7-77--7--7-----11--11-11----7--7--
A --5-55--5--5-----9---9--9-----5--5--
D -----------------9---9--9-----5--5--

Goodbye ...

E ------------------------------------
B ------------------------------------
G --7-77--9--9------------------------
D --7-77--7--7-----11--11-11----7-----
A --5-55--5--5-----9---9--9-----5-----
D -----------------9---9--9-----5-----

Guitar 2 (some sort of synth): (1:09)

E --10--10-12----(12)----10--10--12-(hold)
B ----10------(10)--(10)---10--10-----
G ------------------------------------
D ------------------------------------
A ------------------------------------
D ------------------------------------


Verse 2:

Guitar 1 Clean (1:14)

E ------------------------------------
B ------------------------------------
G --7-77--9--9------------------------
D --7-77--7--7-----11--11-11----7--7--
A --5-55--5--5-----9---9--9-----5--5--
D -----------------9---9--9-----5--5-- X2

Sit around and find myself, again
Never thought I'd wait, to justify

(1:24)
[ Tab from: http://www.guitartabs.cc/tabs/f/forty_foot_echo/save_me_tab_ver_3.html ]
E ------------------------------------
B ------------------------------------
G --7-77--9--9------------------------
D --7-77--7--7-----11--11-11----11-11-
A --5-55--5--5-----9---9--9-----9--9--
D -----------------9---9--9-----9--9--

I can't hold on, to what you see

(1:29)

E ------------------------------------
B ------------------------------------
G ------------------------------------
D --9-99--9--9-----7------------------
A --7-77--7--7-----5------------------
D --7-77--7--7-----5------------------

And I can't move, when you're down on your seat


Chorus:

Guitar 2 Heavy Distorted: (0:45)

E -------------------------------------------------
B -------------------------------------------------
G --7-xx-7-7---7-7-7-xx-9-9------------------------
D --5-xx-5-5---7-7-7-xx-7-7---9--xx-9-9---7--xx-7-7
A --5-xx-5-5---5-5-5-xx-5-5---9--xx-9-9---7--xx-7-7
D --5-xx-5-5------------------9--xx-9-9---7--xx-7-7


So save me, in my life
Just hold on, how could you realize

E -----------------------------------------
B -----------------------------------------
G --7-xx-7-7---7-7-7-xx-9-9----------------
D --5-xx-5-5---7-7-7-xx-7-7---9--xx-9-9---5
A --5-xx-5-5---5-5-5-xx-5-5---9--xx-9-9---5
D --5-xx-5-5------------------9--xx-9-9---5


So save me, in my life
Just hold on, got to realize


Bridge:

Guitar 1 Clean: (1:53)

E ----5---------5---------------------
B ------5---------7-------------------
G --7---------7-----------------------
D ------------------------------------
A ------------------------------------
D ------------------------------------ X3

Goodbye ...
Goodbye ...
Goodbye ...

Guitar 2 Clean: (1:53)

E ------------------------------------
B ------------------------------------
G --7-------9-------7-------9---------
D --7-------7-------7-------7---------
A --5-------5-------5-------5---------
D ------------------------------------ X3

Guitar 2 Heavy Distorted: (2:08)

E ------------------------------------
B ------------------------------------
G ------------------------------------
D --5---5-5-5-5-5-5-5-5-5-5-5-5-5-5-5-
A --5---5-5-5-5-5-5-5-5-5-5-5-5-5-5-5-
D --5---5-5-5-5-5-5-5-5-5-5-5-5-5-5-5-

       |----------- P.M. ------------|

E ------------------------------------
B ------------------------------------
G --6/7--7---6---------7/9--9/11------
D ------------------------------------
A --4/5--5---4--7------5/7--7/9-------
D --------------7---------------------

E ------------------------------------
B ------------------------------------
G --11/12----12-11--9--7--6--7--------
D ------------------------------------
A ---9/10----10--9--7--5--4--5--7--9--
D ------------------------------7--9--

E ------------------------------------
B ------------------------------------
G --6/7--7---6---------7/9--9/11------
D ------------------------------------
A --4/5--5---4--7------5/7--7/9-------
D --------------7---------------------

E ----------------------------------------
B ----------------------------------------
G ----------------------------------------
D --9-9-9-9-11-11-11-11-12-12-12-12-12-12-
A --7-7-7-7-7--7--7--7--7--7--7--7--7--7--
D --7-7-7-7-7--7--7--7--7--7--7--7--7--7--

   |------------ P.M. -------------|

Guitar 1 Distorted: (2:28)

E ------------------------------------
B --10-10-10-10/12-12-12-12/14-14-14--
G ------------------------------------
D ------------------------------------
A ------------------------------------
D ------------------------------------

E ------------------------------------
B --14-14-14-14-14-15-(hold)----------
G ------------------------------------
D ------------------------------------
A ------------------------------------
D ------------------------------------

So save me ....


Chorus:*

Guitar 2 Heavy Distorted: (2:35)

E -------------------------------------------------
B -------------------------------------------------
G --7-xx-7-7---7-7-7-xx-9-9------------------------
D --5-xx-5-5---7-7-7-xx-7-7---9--xx-9-9---7--xx-7-7
A --5-xx-5-5---5-5-5-xx-5-5---9--xx-9-9---7--xx-7-7
D --5-xx-5-5------------------9--xx-9-9---7--xx-7-7


So save me, in my life
Just hold on, how could you realize
So save me, in my life
Just hold on, how could you realize
So save me, in my life
Just hold on, how could you realize

E -----------------------------------------
B -----------------------------------------
G --7-xx-7-7---7-7-7-xx-9-9----------------
D --5-xx-5-5---7-7-7-xx-7-7---9--xx-9-9---5
A --5-xx-5-5---5-5-5-xx-5-5---9--xx-9-9---5
D --5-xx-5-5------------------9--xx-9-9---5
                                         (let ring)

So save me, in my life
Just hold on ... mmm

* The last chorus gradually gets more messy, so as long
  as it's loud and follows a beat it all sounds the same

End
Comments