Forty Foot Echo - Brand New Day Chords & Tabs

 

Brand New Day Chords & Tabs

Forty Foot Echo Chords & Tabs

Version: 5 Type: Tab 0 ratings
1 star 2 stars 3 stars 4 stars 5 stars
comments

Brand New Day Tab

   
--------------------------------------------------------------------------
			     BRAND NEW DAY - Forty Foot Echo
--------------------------------------------------------------------------
Tabbed by: James Anderson

I'm not making any guarantees, but I think these sound closer
than the previous two tabs (there is no intro):

Tuning: Std.

Verses:
	Bbm	C#sus2	      G#	F#
e|-------6---------4-----------4---------2-----|
B|-------6---------4-----------4---------2-----|
G|-------6---------6-----------5---------3-----| 
D|-------8---------6-----------6---------4-----|
A|-------8---------4-----------6---------4-----|
E|-------6---------4-----------4---------2-----|

Chorus:
	F#	C#sus2	      G#
e|-------2---------4-----------4------|
B|-------2---------4-----------4------|
G|-------3---------6-----------5------|	3x
D|-------4---------6-----------6------|
A|-------4---------4-----------6------|
E|-------2---------4-----------4------|

	D#	F	F#
e|------------------------------------|
B|------------------------------------|
G|------8------10-------11------------|
D|------8------10-------11------------|
A|------6------8--------9-------------|
E|------------------------------------|

Then there is a bridge, which is just a short violin solo over the Verse 
Chord progression (played once).

Then on to Verse Two, and the chorus again.

The another bridge (a simple guitar riff and another violin solo)
e|---------------------------------------------------------|
B|--9----7----6-------9-7-6-----9----7----6-------9-7-6----|
G|------------------6---------------------------6----------|
D|---------------------------------------------------------|
A|---------------------------------------------------------|
E|---------------------------------------------------------|

[ Tab from: http://www.guitartabs.cc/tabs/f/forty_foot_echo/brand_new_day_tab_ver_5.html ]
e|--------------------------------------------|
B|----9----7----6-------9-7-6-----9----8---7--|
G|--------------------6-----------------------|
D|--------------------------------------------|
A|--------------------------------------------|
E|--------------------------------------------|

Guitar Solo (over verse chords):
e|---------------------------------------------------6---8---6---8---6--|
B|-----------------------------------------------------9---9---9---9----|
G|-------------------------------------6-8-6---6/8----------------------|
D|------8----^11r10--8------11--11--6-8---------------------------------|
A|-6/8-----------------11-----------------------------------------------|
E|----------------------------------------------------------------------|

e|-----------------16--------------16------------------|
B|----------14--------14----14--------14----14---------|
G|--10/13------13--------13----13-------13-----13------|
D|-----------------------------------------------------|
A|-----------------------------------------------------|
E|-----------------------------------------------------|

This part is over the chorus chords:
e|-----------------------------------------------------------------------|
B|14--14-14--14-14-14-----------------------------------14---13----------|
G|13--13-13--13-13-13--13-13-13-13-15-13---13-13--13-13---------13h15p13-|
D|11--11-11--11-11-11----------------------------------------------------|
A|-------------------------------------------------------------etc...----|
E|-----------------------------------------------------------------------|

Then the chorus.

The outro is just the first two lines of the 1st verse.


| ^  bend
| r  release
| /  slide up
| \  slide down
| h  hammer-on
| p  pull-off
| ~  vibrato
| +  harmonic
| x  Mute note
============================================================================
Comments