Forty Foot Echo - Brand New Day Chords & Tabs

 

Brand New Day Chords & Tabs

Forty Foot Echo Chords & Tabs

Version: 3 Type: Tab 0 ratings
1 star 2 stars 3 stars 4 stars 5 stars
comments

Brand New Day Tab

Ok this is the first time besides "save me" that someone tried ta tab
a forty foot echo song and i cant really believe that but oh well here it goes.

intro:
e-------------------------------------
B-------------------------------------
G--6--------8--------5--------3-------
D--6--------8--------5--------3-------
A--4--------6--------3--------5-------
E-------------------------------------
[ Tab from: http://www.guitartabs.cc/tabs/f/forty_foot_echo/brand_new_day_tab_ver_3.html ]
chorus:            end chorus:
e-----------------/-------------
B-----------------/-------------
G--6--------8-----/--8-10--11---
D--6--------8-----/--8-10--11---
A--4--------6-----/--6--8---9---
E-----------------/-------------

Now please listen to me, i didnt put the rythym in cuz it would take me a year to
tab. All of the power chords are right, so if u figure out the rythym u can play
it. Please correct it if u think its wrong, and if someone know the rest tab it out.
Comments