Fort Minor - Slip Out The Back Chords & Tabs

 

Slip Out The Back Chords & Tabs

Fort Minor Chords & Tabs

Version: 1 Type: Bass Tab

Slip Out The Back Bass Tab

-------------------------------------------------------------------------------
			     SLIP OUT THE BACK - Fort Minor
-------------------------------------------------------------------------------

Tabbed By : Grebble

Track 16 on The Rising Tied
My personal favourite FM song

Verse 1: No Bass

Chorus 1: No Bass

Verse 2:
G|-------------------------------|-------------------------------|
D|-------------------------------|-------------------------------|
A|-------------------------------|--0----------------------------|
E|--0--------------3-------------|------------------2------------|
[ Tab from: http://www.guitartabs.cc/tabs/f/fort_minor/slip_out_the_back_btab.html ]
Prechorus:
G|-------------------------------|-------------------------------|
D|-------------------------------|-------------------------------|
A|--0----------------------------|-------------------------------|
E|-----------------3-------------|--0---------------2------------|

Chorus 2:
G|-------------------------------|-------------------------------|
D|-------------------------------|-------------------------------|
A|-------------------------------|--0----------------------------|
E|--0--------------3-------------|------------------2------------|

Bridge:
G|-------------------------------|-------------------------------|
D|-------------------------------|-------------------------------|
A|--0----------------------------|-------------------------------|
E|-----------------3-------------|--0---------------2------------|

Chorus 3:
G|-------------------------------|-------------------------------|
D|-------------------------------|-------------------------------|
A|-------------------------------|--0----------------------------|
E|--0--------------3-------------|------------------2------------|