Fort Minor - Kenji Chords & Tabs

 

Kenji Chords & Tabs

Fort Minor Chords & Tabs

Version: 2 Type: Tab

Kenji Tab

Band: Fort Minor
Album: The Rising Tied
tabbed by Martin Thiele
_-_-_-_-_-_-_-_-_-_-_-_-_-_-_-_-_


e||--------13-----------|--------13-----------|
B||----11--------11--11-|----11--------11--11-|
G||--10--10--------10---|--10--10--------10---|
D||---------------------|---------------------|
A||---------------------|---------------------|
E||---------------------|---------------------|
[ Tab from: http://www.guitartabs.cc/tabs/f/fort_minor/kenji_tab_ver_2.html ]
e|--14--14---13--13---|--11--11----_--------13-----------...
B|----11--11---11--11-|----11--11--_----11--------11--11-...
G|--------------------|------------_--10--10--------10---...again and again
D|--------------------|------------_---------------------...
A|--------------------|------------_---------------------...
E|--------------------|------------_---------------------...


that's all! this tab follows till the end!
if anything is wrong, please post me: thielemartin@gmx.net