Fort Minor - Believe Me Chords & Tabs

 

Believe Me Chords & Tabs

Fort Minor Chords & Tabs

Version: 1 Type: Tab

Believe Me Tab

Artist: Fort Minor
Song: Believe Me
Tuning: standart (eBGDAE)

Tabbed by: Dolphin
Date: december 2005



Piano Part (chorus only)
|----3--3-1---1-3-1------------1----------1-----1-----|
|-1---------4-------4-4--1-4-1---1--1-4-1---4-1---4-1-|
|-----------------------------------------------------|
|-----------------------------------------------------|
|-----------------------------------------------------|
|-----------------------------------------------------|

|-3--3-1---1-3-1------------1----------1-----1-|
|--------4-------4-4--1-4-1---1--1-4-1---4-1---|
|----------------------------------------------|
|----------------------------------------------|
|----------------------------------------------|
|----------------------------------------------|

Bass Part (whole song)
|----------------------------------------------|
|----------------------------------------------|
|----------------------------------------------|
|-8~--8----6~--6----5~--5--4~--3~--------------|
repeat
[ Tab from: http://www.guitartabs.cc/tabs/f/fort_minor/believe_me_tab.html ]
Violin part
|-------------|-----------|-------------|-----------|-------------|-----------|-------------|-----------|
|-------------|-----------|-------------|-----------|-------------|-----------|-------------|-----------|
|-------------|-----------|-------------|-----------|-------------|-----------|-------------|-----------|
|-12-13-12-10-|-----------|-12-13-12-10-|-----------|-12-13-12-10-|-----------|-12-13-12-10-|-------6-5-|
|-------------|---6---6---|-------------|---6---6---|-------------|---6---6---|-------------|---6-------|
|-------------|-8---8---8-|-------------|-6---6---6-|-------------|-5---5---5-|-------------|-4---4-----|

Though, violin part could be played like this:
|--------------|--------------|--------------|----------------|
|--------------|--------------|--------------|----------------|
|--------------|--------------|--------------|----------------|
|--------------|--------------|--------------|--------6--5--5-|
|---6---6------|---6---6------|---6---6------|---6------------|
|-8---8---8--8-|-6---6---6--6-|-5---5---5--5-|-4---4----------|