Formula 5 - Karley Chords & Tabs

 

Karley Chords & Tabs

Formula 5 Chords & Tabs

Version: 1 Type: Tab 0 ratings
1 star 2 stars 3 stars 4 stars 5 stars
comments

Karley Tab

   
e:--------0-------------0------|
C:--------0-------------0------|
G:-0-0--0-0------0-0--0-0------|
C:-0-0--0-0------0-3--0-0------|
G:-0-0--0-0------0-3--0-0------|
C:-0-0--0-0------0-3--0-0------|

e:-----------0-----0-----0-----|
C:-----------0-----0-----0-----|
G:-0-0--0-0--0--0--0--0--0--0--|
C:-0-0--0-0--0--0--0--0--0--0--| twice as fast
G:-0-0--0-0-----0-----0-----0--|
C:-0-0--0-0-----0-----0-----0--|

e:-----------0-----0-----0-----|
C:-----------0-----0-----0-----|
G:-0-0--0-0--0--0--0--0--0--0--|
C:-0-3--0-0--0--0--0--0--0--0--|
G:-0-3--0-0-----0-----0-----0--|
C:-0-3--0-0-----0-----0-----0--|

Chorus
======

e:-----------0-3--0-2--0----0-2--0-2--0-2--|
C:-----------0-3--0-2--0-0--0-2--0-2--0-2--|
G:-0-0--0-0--0-0--0-0--0-0--0-0--0-0--0-0--|
C:-0-0--0-0--------------0-----------------|
G:-0-0--0-0--------------------------------|
C:-0-0--0-0--------------------------------|

e:-3---------0-3--0-2--0----0-2--3-2--0-2--|
C:-3---------0-3--0-2--0-0--0-2--3-2--0-2--|
G:-0-0--0-0--0-0--0-0--0-0--0-0--0-0--0-0--|
C:-0-0--0-0--------------0-----------------|
G:-0-0--0-0--------------------------------|
C:-0-0--0-0--------------------------------|

e:-----------0-3--0-2--0----0-2--0-2--0-2--|
C:-----------0-3--0-2--0-0--0-2--0-2--0-2--|
G:-0-0--0-0--0-0--0-0--0-0--0-0--0-0--0-0--|
C:-0-0--0-0--------------0-----------------|
G:-0-0--0-0--------------------------------|
C:-0-0--0-0--------------------------------|

e:-----------0-3--0-2--0------|
C:-----------0-3--0-2--0-0--0-|
G:-0-0--0-0--0-0--0-0--0-0--0-|
C:-0-0--0-0--------------0--0-|
G:-0-0--0-0--------------0--0-|
C:-0-0--0-0-------------------|

e:--------------------------------------------|
C:-0-x-x-3-x-x-2-x-x-5-x-x-4-x-x-7-x-x-6--6-6-|
G:-0-x-x-3-x-x-2-x-x-5-x-x-4-x-x-7-x-x-6--6-6-|
C:-0-x-x-3-x-x-2-x-x-5-x-x-4-x-x-7-x-x-6--6-6-|
G:--------------------------------------------|
C:--------------------------------------------|

Verse A (Repeat x2)
=======

e:-0---0--0--0---0--0--0---0--0--0---0--0--|
C:-0---0--0--0---0--0--0---0--0--7---7--7--|
G:-0---0--0--0---0--0--0---0--0--0---0--0--|
C:-0---0--0--0---0--0--0---0--0--7---7--7--|
G:-0---0--0--0---0--0--0---0--0--0---0--0--|
C:-----------------------------------------|

e:-0---0--0--0---0--0--0---0--0--0---0--0--|
C:-6---6--6--6---6--6--6---6--6--7---7--7--|
G:-0---0--0--0---0--0--0---0--0--0---0--0--|
C:-6---6--6--6---6--6--6---6--6--7---7--7--|
G:-0---0--0--0---0--0--0---0--0--0---0--0--|
C:-----------------------------------------|

e:-0---0--0--0---0--0--0---0--0--0---0--0--|
C:-9---9--9--9---9--9--9---9--9--4---4--4--|
G:-0---0--0--0---0--0--0---0--0--0---0--0--|
C:-9---9--9--9---9--9--9---9--9--4---4--4--|
G:-0---0--0--0---0--0--0---0--0--0---0--0--|
C:-----------------------------------------|

e:-0---0--0--0---0--0--0---0--0--0---0--0--|
C:-6---6--6--6---6--6--6---6--6--1---1--1--|
G:-0---0--0--0---0--0--0---0--0--0---0--0--|
C:-6---6--6--6---6--6--6---6--6--1---1--1--|
G:-0---0--0--0---0--0--0---0--0--0---0--0--|
C:-----------------------------------------|

Verse B
=======

e:-0---0--0--0---0--0--0---0--0--0---0--0--|
C:-0---0--0--0---0--0--0---0--0--7---7--7--|
G:-0---0--0--0---0--0--0---0--0--0---0--0--|
C:-0---0--0--0---0--0--0---0--0--7---7--7--|
G:-0---0--0--0---0--0--0---0--0--0---0--0--|
C:-----------------------------------------|

e:-0---0--0--0---0--0--0---0--0--0---0--0--|
C:-6---6--6--6---6--6--6---6--6--7---7--7--|
G:-0---0--0--0---0--0--0---0--0--0---0--0--|
C:-6---6--6--6---6--6--6---6--6--7---7--7--|
G:-0---0--0--0---0--0--0---0--0--0---0--0--|
C:-----------------------------------------|
[ Tab from: http://www.guitartabs.cc/tabs/f/formula_5/karley_tab.html ]
e:-0---0--0--0---0--0--0---0--0--0---0--0--|
C:-9---9--9--11--11-11-11--11-11-4---4--4--|
G:-0---0--0--0---0--0--0---0--0--0---0--0--|
C:-9---9--9--11--11-11-11--11-11-4---4--4--|
G:-0---0--0--0---0--0--0---0--0--0---0--0--|
C:-----------------------------------------|

e:-0---0--0--0---0--0--0---0--0--0---0--0--|
C:-6---6--6--6---6--6--6---6--6--1---1--1--|
G:-0---0--0--0---0--0--0---0--0--0---0--0--|
C:-6---6--6--6---6--6--6---6--6--1---1--1--|
G:-0---0--0--0---0--0--0---0--0--0---0--0--|
C:-----------------------------------------|

Ending
======

e:-0---0--0--0---0--0--0---0--0--0---0--0--|
C:-0---0--0--0---0--0--0---0--0--0---0--0--|
G:-0---0--0--0---0--0--0---0--0--0---0--0--|
C:-0---0--0--0---0--0--0---0--0--0---0--0--|
G:-0---0--0--0---0--0--0---0--0--0---0--0--|
C:-----------------------------------------|

e:-0---0--0--0---0--0--0---0--0--0---0--0--|
C:-0---0--0--0---0--0--0---0--0--3---3--3--|
G:-0---0--0--0---0--0--0---0--0--0---0--0--|
C:-0---0--0--0---0--0--0---0--0--3---3--3--|
G:-0---0--0--0---0--0--0---0--0--0---0--0--|
C:-----------------------------------------|

e:-0---0--0--0---0--0--0---0--0--0---0--0--|
C:-2---2--2--2---2--2--2---2--2--5---5--5--|
G:-0---0--0--0---0--0--0---0--0--0---0--0--|
C:-2---2--2--2---2--2--2---2--2--5---5--5--|
G:-0---0--0--0---0--0--0---0--0--0---0--0--|
C:-----------------------------------------|

e:-0---0--0--0---0--0--0---0--0--0---0--0--|
C:-4---4--4--4---4--4--4---4--4--7---7--7--|
G:-0---0--0--0---0--0--0---0--0--0---0--0--|
C:-4---4--4--4---4--4--4---4--4--7---7--7--|
G:-0---0--0--0---0--0--0---0--0--0---0--0--|
C:-----------------------------------------|

e:-0---0--0--0---0--0--0---0--0--0---0--0--|
C:-6---6--6--6---6--6--6---6--6--7---7--7--|
G:-0---0--0--0---0--0--0---0--0--0---0--0--|
C:-6---6--6--6---6--6--6---6--6--7---7--7--|
G:-0---0--0--0---0--0--0---0--0--0---0--0--|
C:-----------------------------------------|

e:-0---0--0--0---0--0--0---0--0--0---0--0--|
C:-9---9--9--9---9--9--9---9--9--3---3--3--|
G:-0---0--0--0---0--0--0---0--0--0---0--0--|
C:-9---9--9--9---9--9--9---9--9--3---3--3--|
G:-0---0--0--0---0--0--0---0--0--0---0--0--|
C:-----------------------------------------|

e:-0---0--0--0---0--0--0---0--0--0---0--0--|
C:-2---2--2--2---2--2--2---2--2--5---5--5--|
G:-0---0--0--0---0--0--0---0--0--0---0--0--|
C:-2---2--2--2---2--2--2---2--2--5---5--5--|
G:-0---0--0--0---0--0--0---0--0--0---0--0--|
C:-----------------------------------------|

e:-0---0--0--0---0--0--0---0--0--0---0--0--|
C:-4---4--4--4---4--4--4---4--4--7---7--7--|
G:-0---0--0--0---0--0--0---0--0--0---0--0--|
C:-4---4--4--4---4--4--4---4--4--7---7--7--|
G:-0---0--0--0---0--0--0---0--0--0---0--0--|
C:-----------------------------------------|

e:-0---0--0--0---0--0--0---0--0--0---0--0--|
C:-6---6--6--6---6--6--6---6--6--7---7--7--|
G:-0---0--0--0---0--0--0---0--0--0---0--0--|
C:-6---6--6--6---6--6--6---6--6--7---7--7--|
G:-0---0--0--0---0--0--0---0--0--0---0--0--|
C:-----------------------------------------|

e:-0---0--0--0---0--0--0---0--0--0---0--0--|
C:-9---9--9--9---9--9--9---9--9--2---2--2--|
G:-0---0--0--0---0--0--0---0--0--0---0--0--|
C:-9---9--9--9---9--9--9---9--9--2---2--2--|
G:-0---0--0--0---0--0--0---0--0--0---0--0--|
C:-----------------------------------------|

e:-0---0--0--0---0--0--0---0--0--0---0--0--|
C:-3---3--3--3---3--3--3---3--3--2---2--2--|
G:-0---0--0--0---0--0--0---0--0--0---0--0--|
C:-3---3--3--3---3--3--3---3--3--2---2--2--|
G:-0---0--0--0---0--0--0---0--0--0---0--0--|
C:-----------------------------------------|

e:-0---0--0--0---0--0--0---0--0--0---0--0--|
C:-0---0--0--0---0--0--0---0--0--0---0--0--|
G:-0---0--0--0---0--0--0---0--0--0---0--0--|
C:-0---0--0--0---0--0--0---0--0--0---0--0--|
G:-0---0--0--0---0--0--0---0--0--0---0--0--|
C:-----------------------------------------|
Comments