Format - Tune Out Chords & Tabs

 

Tune Out Chords & Tabs

Format Chords & Tabs

Version: 1 Type: Tab 0 ratings
1 star 2 stars 3 stars 4 stars 5 stars
comments

Tune Out Tab

   
SONG: TUNE OUT
ARTIST: THE FORMAT

Figure out the timing yourself.

Starts out in E. Walks up on the B string.  3rd fret, 2nd fret, open.

Then goes to..

(VERSE)

E------3------1---------------|
A------2------------2----3----|
D-------------------2----2----|
G-----------------------------|
B------3------3-----3----3----|
e------3------3-----3----3----|

Then G & D for "Grab your coat, the keys..... were singing it - back to G

[ Tab from: http://www.guitartabs.cc/tabs/f/format/tune_out_tab.html ]
G                          C (played like above)
I'll tap the brakes .....  you rack the window
Smell of smoke.............making my lungs...
Explode 51 is .............backed up & too slow

D
lets tune out while turning on the radio

(BACK TO 2nd VERSE - SAME AS FIRST)

Then

G                         C
all my love            ...All I need
right behind the..        Frequency
they played this song .an hour ago.

D
well lets tune out

((BRIDGE)) x2

E---------2---2---1---|
A--2--2---3-----------|
D--2--3---------------|
G---------------------|
B--3--3---3---3---3---|
e--3--3---3---3---3---|

Ok, play.
Comments