Format - Im Read I Am Chords & Tabs

 

Im Read I Am Chords & Tabs

Format Chords & Tabs

Version: 1 Type: Tab 0 ratings
1 star 2 stars 3 stars 4 stars 5 stars
comments

Im Read I Am Tab


well this is my second format tab i saw another tab for this song
but i didnt think it sound right so
i changed it alittle. i might not be exactly right but
it sounds good   if you have any question my
email is PappperBoy2001@hotmail.com. thank you
                                 tab by: Philip cisneros

                      THE FORMAT
	           IM READY, I AM
VERSE 1
--------------------------------------------------------|
--------------1---1---1---------------------------------|
--5---5--5----2---2---2-------------------5---5---5-----|
--5---5--5----2---2---2-------5---5---5---5---5---5-----|
333-333-333-000-000-000-------5---5---5-333-333-333-----|
----------------------------333-333-333-----------------|
im nicotine, im coming clean
i fooled the crowd
when i made it sound like i
was more then ready
--------------------------------------|
-----------1--1--1--------------------|
 5--5--5---2--2--2-----------5--5--5--|
 5--5--5---2--2--2--5--5--5--5--5--5--|
 3--3--3------------5--5--5--3--3--3--|
 -------------------3--3--3-----------|
strike up the band, deprive my sleep
cause theres no love like apathy
the bell that tolls rings loud enough
that it should have woke us up

 ~CHORUS~
 ---------------------------------|
 2-2-2-2--------------------------|
 2-2-2-2---------------5-5-5-5----|
 0-0-0-0--5--5--5-5----5-5-5-5----|   X2
 ---------5--5--5-5----3-3-3-3----|
 ---------3--3--3-3---------------|
im trying to find truth in words, in
rhymes, in notes, in all the things
i wish id wrote cause i feel like
ive been losing you
[ Tab from: http://www.guitartabs.cc/tabs/f/format/im_read_i_am_tab.html ]
VERSE 2
--------------------------------------------------------|
--------------1---1---1---------------------------------|
--5---5--5----2---2---2-------------------5---5---5-----|
--5---5--5----2---2---2-------5---5---5---5---5---5-----|
333-333-333-000-000-000-------5---5---5-333-333-333-----|
----------------------------333-333-333-----------------|
im nicotine, im coming clean
i fooled the crowd
read your last entry
overprivelaged kids keep
crying the need to fit in is harder
when living life from a screen
 -------------------------------------|
-----------1--1--1--------------------|
 5--5--5---2--2--2-----------5--5--5--|
 5--5--5---2--2--2--5--5--5--5--5--5--|
 3--3--3------------5--5--5--3--3--3--|
 -------------------3--3--3-----------|
old classmates please drop
all your pens dont write a word
cause i wont reply and im
not bitter, no its just ive
passed that point in my life

 ~CHORUS2~
 ---------------------------------|
 2-2-2-2--------------------------|
 2-2-2-2---------------5-5-5-5----|
 0-0-0-0--5--5--5-5----5-5-5-5----|   X4
 ---------5--5--5-5----3-3-3-3----|
 ---------3--3--3-3---------------|
im trying to find truth
in words, in rhymes, in notes,
in all the things i wish
id wrote cause i feel like
ive been losing you each
night it ends too soon you
dont hold me like you
used to and your eyes look like
theyve seen too much its
always some excuse too tired,
too obtuse you look so
far removed, this time i fear im losing you

               ~CHORUS SOLO~
  (Just use the chords from the chorus no words)

VERSE 3
 ------------------------------------------------------------|
 -------------1----1---1-------------------------------------|
 --5---5--5---2----2---2---------------5----5--5-5h3-----5---|
 --5---5--5---2----2---2---5---5---5---5----5--5----5-3--5---|
 333-333-333-000-000-000---5---5---5-333-333-333-------5-3---|
 ------------------------333-333-333-------------------------|
im nicotine im a cash machine im the
color green and you should have seen
the looks i just recieved
--------------------------------------|
-----------1--1--1--------------------|
 5--5--5---2--2--2-----------5--5--5--|
 5--5--5---2--2--2--5--5--5--5--5--5--|
 3--3--3------------5--5--5--3--3--3--|
 -------------------3--3--3-----------|
i need a reason to let go an intervention,
a lulluby something to cure me
please believe me

 ~CHORUS3~
 ---------------------------------|
 2-2-2-2--------------------------|
 2-2-2-2---------------5-5-5-5----|
 0-0-0-0--5--5--5-5----5-5-5-5----|   X4
 ---------5--5--5-5----3-3-3-3----|
 ---------3--3--3-3---------------|
im trying to find truth in words, in rhymes, in notes,
in all the things i wish id wrote cause i feel like
ive been losing you each night it ends too soon
you dont hold me like you used to and your eyes look like
theyve seen too much its always some excuse too tired, too
obtuse you look so far removed, this time i fear im losing you
Comments