Format - Give It Up Chords & Tabs

 

Give It Up Chords & Tabs

Format Chords & Tabs

Version: 2 Type: Tab 0 ratings
1 star 2 stars 3 stars 4 stars 5 stars
comments

Give It Up Tab

Artist: The Format
Song: Give It Up
Album: Interventions & Lullabys
Tuning: Normal (capo on 1)
Tabber: Calum (afirock74@hotmail.com)

Intro:
e|------2-2-2-2--0-0--0-0-0---2-2-2--0-0-0--------0----|
B|---3--3-3-3-3--0-0--6-6-6---3-3-3--0-0-0--------0----|
G|---4--2-2-2-2--2-2--5-5-5---2-2-2--2-2-2--1-1---2----|
D|-5-5--0-0-0-0--2-2--3-3-3---0-0-0--2-2-2--2-2---2----|
A|-5-5-----------2-2-----------------2-2-2--2-2---2----|
E|-3-3--------------------------------------0-0--------|

Verse:
e|-0-00-0-0-0-0-0--------------------|
B|-0-00-0-0-0-0-0--------------------|
G|-2-22-2-2-2-2-2--1-11-1-1-1-1-1----|
D|-2-22-2-2-2-2-2--2-22-2-2-2-2-2----|
A|-2-22-2-2-2-2-2--2-22-2-2-2-2-2----|
E|-----------------0-00-0-0-0-0-0----|
[ Tab from: http://www.guitartabs.cc/tabs/f/format/give_it_up_tab_ver_2.html ]
Chorus:
e|---------------------------------------------------|
B|---------------------------------------------------|
G|-------------8--8--8--8--------------10-10-10-10---|
D|-5--5--5--5--8--8--8--8--8--8--8--8--10-10-10-10---|
A|-5--5--5--5--6--6--6--6--8--8--8--8--8--8--8--8----|
E|-3--3--3--3--------------6--6--6--6----------------|

Chorus{End}:
e|------------------------------------0---|
B|------------------------------------0---|
G|--8--8--8--8------------------------2---|
D|--8--8--8--8--8--8--8--8--2-2-2-2---2---|
A|--6--6--6--6--8--8--8--8--2-2-2-2---2---|
E|--------------6--6--6--6--0-0-0-0-------|

Riff:
e|------------------------------|
B|--8/6-----------8/6-----------|
G|------5/7-5/7-------5/7-5/7---|
D|------------------------------|
A|------------------------------|
E|------------------------------|

Ta
Comments