Forget About Emily - I Wanna Be A Wanna Be Chords & Tabs

 

I Wanna Be A Wanna Be Chords & Tabs

Forget About Emily Chords & Tabs

Version: 2 Type: Bass Tab 0 ratings
1 star 2 stars 3 stars 4 stars 5 stars
comments

I Wanna Be A Wanna Be Bass Tab

Band: Forget About Emily

Written By: Aaron Chitty and Brian Smith

SONG: I WANNA BE A WANNA BE

VERSE
[ Tab from: http://www.guitartabs.cc/tabs/f/forget_about_emily/i_wanna_be_a_wanna_be_btab_ver_2.html ]
G|-------------------------------------|
D|-------------------------------------|
A|-5-5-4-----3-------------------------|
E|-------3-3---------------------------|


CHORUS

G|---------------------------------|
D|---------------------------------|
A|-----------10-10-----------------|
E|-12--12-11-------10--------------|

THATS IT!   (Submitted by..BS)
Email me at Squad 50 bs@aol.com
Comments