Forget About Emily - Forget About Emily Chords & Tabs

 

Forget About Emily Chords & Tabs

Forget About Emily Chords & Tabs

Version: 2 Type: Bass Tab 0 ratings
1 star 2 stars 3 stars 4 stars 5 stars
comments

Forget About Emily Bass Tab

Band: Forget About Emily

Written By: Aaron Chitty and Brian Smith

SONG: Forget About Emily (Self-titled)

INTRO

G|-------------------------------------|
D|-------------------------------------|
A|-------------2-----------------------|
E|-5-----2-----------0-----------------|
(LET EACH NOTE RING.)

VERSE
[ Tab from: http://www.guitartabs.cc/tabs/f/forget_about_emily/forget_about_emily_btab_ver_2.html ]
G|---------------------------------|
D|---------------------------------|
A|-----2---------------------------|
E|-5-2---0-------------------------|

SOLO

G|-------9-7-----------------------|
D|---9-7---------------------------|
A|-7-------------------------------|
E|---------------------------------|

THATS IT!   (Submitted by..BS)
Email me at Squad 50 bs@aol.com
Comments