Forever Never - Youre The Voice Chords & Tabs

 

Youre The Voice Chords & Tabs

Forever Never Chords & Tabs

Version: 2 Type: Tab

Youre The Voice Tab

   
Drop A
Can be done on 7 string

*Please note: My guitar + strings are not set for this tuning but i gave it my best shot :)


INTRO

Let the 779 ring out in the background until other chords come in.

B |-----|----------------------|
F#|-----|----------------------|
D |-----|----------------------| Alternatively, try to follow these with the
A |-(9)-|--14~--16-12~-11(14)--| barre chords on the low AEA strings.
E |-(7)-|--12~--14-10~-9-(12)--|
A |-(7)-|----------------------| repeat x3?


PRECHORUS (listen)

   "... All someones daughter"  " ... someones son"
B |--------------------------------------------------------|
F#|--------------------------------------------------------|
D |-2-4-2-----4--------------4----2-4-2---x-4--9(4)--xxxxx-|
A |-2-4-2-2-2-4-----4--------4----2-4-2-2-x-4--9(2)--xxxxx-|
E |-0-2-0-0-0-2-0-0-200-0--0-2----0-2-0-0-x-2--7-----xxxxx-|
A |--------------------------------------------------xxxxx-|
  PM      . .   . .  .. .  .


   " ... look at eachother"    "... barrel of a gun"
B |------------------------------------------------------|
F#|------------------------------------------------------|
D |-2-4-2-----4--------------4----2-4-2--4~~-------------|
A |-2-4-2-2-2-4-----4--------4----2-4-2--4~~44-444-4-44--|
E |-0-2-0-0-0-2-0-0-200-0--0-2----0-2-0--2~~22-222-2-22--|
A |------------------------------------------------------|
  PM      . .   . .  .. .  .                .. ... . ..



CHORUS - listen for timing

B |------------------------------| first time
F#|------------------------------|
D |-9-----9-----7-----9----------|
A |-9-----9-----7-----7-xxxxx----|
E |-7-----7-----5-----7-xxxxx----|
A |-------------------7-xxxxx----|


B |----------------------------------------| second time
F#|----------------------------------------|
D |-9---x-9---x-9---x-9/-12----7-----9-----|
A |-9---x-9---x-9---x-9/-12----7-----7-----|
E |-7-77x-7-77x-7-77x-7/-10----5-----7-----|
A |----------------------------------7-----|
  PM  ..    ..    ..


REPEAT VERSE


PRECHORUS 2
[ Tab from: http://www.guitartabs.cc/tabs/f/forever_never/youre_the_voice_tab_ver_2.html ]
   "... All someones daughter"  " ... someones son"
B |--------------------------------------------------------|
F#|--------------------------------------------------------|
D |-2-4-2-----4--------------4----2-4-2---x-4--9(4)--xxxxx-|
A |-2-4-2-2-2-4-----4--------4----2-4-2-2-x-4--9(2)--xxxxx-|
E |-0-2-0-0-0-2-0-0-200-0--0-2----0-2-0-0-x-2--7-----xxxxx-|
A |--------------------------------------------------xxxxx-|
  PM      . .   . .  .. .  .


   " ... look at eachother"    "... barrel of a gun"
B |------------------------------------------------------|
F#|------------------------------------------------------|
D |-2-4-2-----4--------------4----2-4-2--4~~-------------|
A |-2-4-2-2-2-4-----4--------4----2-4-2--4~~44444444444--| Keep hammering
E |-0-2-0-0-0-2-0-0-200-0--0-2----0-2-0--2~~22222222222--| that last 244
A |------------------------------------------------------| palm muted
  PM      . .   . .  .. .  .                ...........    just listen :)



REPEAT CHORUS


SOLO

B |-------------------------------------------------------------------|
F#|-------7-------7----7--10-8--7-------------10-8--7-----------------|
D |--/7-h9--7--h9--7-9-----------9--7h9p7------------9--7h9p7----7h9--|
A |----------------------------------------10-----------------10------|
E |-------------------------------------------------------------------|
A |-------------------------------------------------------------------|

B |----------13--------13--------13--16-14--13-------------------| carrys
F#|--/14-h16----14-h16-----14h16---------------16--14h16p14------| on...
D |---------------------------------------------------------16---| ......
A |--------------------------------------------------------------|
E |--------------------------------------------------------------|
A |--------------------------------------------------------------|


B |...---16-14--13-----------------------------|
F#|---------------16--14h16p14----14h16p14**---|
D |---------------------------16---------------|
A |--------------------------------------------|
E |--------------------------------------------|
A |--------------------------------------------|



REPEAT PRECHORUS
       CHORUS

UNTIL FADE

*Note, variations in the prechorus and chorus here are just lots of palm muted string 
slamming :D u can hear it along with the double bass at the end
so there's no real need to tab it

enjoy :)