Foreigner - Cold As Ice Chords & Tabs

 

Cold As Ice Chords & Tabs

Foreigner Chords & Tabs

Version: 3 Type: Tab 0 ratings
1 star 2 stars 3 stars 4 stars 5 stars
comments

Cold As Ice Tab

ok, i was tryin to find the cold as ice solo on the internet, and there are only a
bunch of shitty ones, so i figured it out. im not exactly sure what key its on, i
think its in Eb. well here it goes...

|-----------------------------------------------------------------11-10-11/|
|------------------------------------------------------12-11-12------------|
|--------------------------------------------11-10-11----------------------|
|----------------------------------13-12-13--------------------------------|
|-----------------------14-13-14-------------------------------------------|
|-11-10-11---14-13-14------------------------------------------------------|


|-14-14-16b(18)(16)-14-------16b(18)(16)-14--------------------------------|
|----------------------16~~-------------------16-14-16~~-------------------|
|--------------------------------------------------------------------------|
|--------------------------------------------------------------------------|
|--------------------------------------------------------------------------|
|--------------------------------------------------------------------------|
[ Tab from: http://www.guitartabs.cc/tabs/f/foreigner/cold_as_ice_tab_ver_3.html ]
|--------------------------------------------------------------------------|
|------------------------------------------------------12-11-12-12/-16-16~-|
|--------------------------------------------11-10-11----------------------|
|----------------------------------13-12-13--------------------------------|
|-----------------------14-13-14-------------------------------------------|
|-11-10-11---14-13-14------------------------------------------------------|

|--------------------------------------------------14h15p14h15p14h15p14h15-|
|-14-12-11---11h12p11h12p11h12--15h16p15h16p15h16--------------------------|
|--------------------------------------------------------------------------|
|--------------------------------------------------------------------------|
|--------------------------------------------------------------------------|
|--------------------------------------------------------------------------|

well thats it. this is my first time tabing, so if theres anything you want
me to know or anything i did wrong my email is malicewithinme88@yahoo.com.
hope you have fun rockin out. i think mikes using the Eb melodic scale im
not sure. -chris
Comments