Foreign Objects - Victory Chords & Tabs

 

Victory Chords & Tabs

Foreign Objects Chords & Tabs

Version: 1 Type: Tab

Victory Tab

   
Author/Artist: CKY
Title: Victory(Over Neptune)
Album: Bullshit Demo/Universal Culture Shock
Transcribed by: Colin Kemege
Email: socksandspoons@hotmail.com
Tuning: 1/2 step down

This is another cool instrumental song...I tabbed just then
lead because there are many layerd guitars in this song.

Part A x4
-|----------------------------------------------------------------------------|
-|----------------------------------------------------------------------------|
-|----------------------------------------------------------------------------|
-|-----------7--5-------------9---7--5--7--0----------------------------------|
-|-7----7-5--------5---7------------------------------------------------------|
-|----------------------------------------------------------------------------|
[ Tab from: http://www.guitartabs.cc/tabs/f/foreign_objects/victory_tab.html ]
Part B x2
-|----------------------------------------------------------------------------|
-|----------------------------------------------------------------------------|
-|----------------------------------------------------------------------------|
-|---9---10---9---9-----------9----10----9----9------9----10-12--14-----------|
-|-8---8----8---8-------10-12---12----12---12-----12---12---------------------|
-|----------------------------------------------------------------------------|
 pm.   .    .   .  x2       .    .     .    .      .    .

Part C (fade out)
-|----------------------------------------------------------------------------|
-|----------------------------------------------------------------------------|
-|----------------------------------------------------------------------------|
-|----------------------------------------------------------------------------|
-|-2----4---0---4-4-0--4--2----5/7-5--5/7--10/12-10-10/12---------------------|
-|----------------------------------------------------------------------------|