Foreign Objects - Universal Culture Shock Chords & Tabs

 

Universal Culture Shock Chords & Tabs

Foreign Objects Chords & Tabs

Version: 1 Type: Tab 0 ratings
1 star 2 stars 3 stars 4 stars 5 stars
comments

Universal Culture Shock Tab

   
Before CKY, there was Foriegn Objects.
Deron Miller(guitar) and Jess Margera(drums) later form CKY after finding Chad Ginsburg.

Tuning: Standard

AFTER HEAVY INTRO:
Riff A
e|---------------------------------------------|
B|---------------------------------------------|
G|--------5------------------------------------|
D|-7--5-7---7-5-3-5---3-5-5-3-5----------------|
A|-5----------------3-----3--------------------|
E|------------------1--------------------------|x4
[ Tab from: http://www.guitartabs.cc/tabs/f/foreign_objects/universal_culture_shock_tab.html ]
Riff B
e|---------------------------------------------|
B|---------------------------------------------|
G|-----------------------------7-5-3-2---------|
D|-------7-5-3-2-----------------------5-3-5-7-|
A|---8-----------5-3-5-7---7-------------------|
E|-6---6-----------------5---5-----------------|x4

Chords:
e|---------------------------------------------|
B|---------------------------------------------|
G|---------------------------------------------|
D|----3--5--------10--5--9---------------------|
A|-3--1--3--7--8--8---3--7---------------------|
E|-1--------5--6-------------------------------|
Comments