Foreign Exchange - I Hate This Stupid Bike Chords & Tabs

 

I Hate This Stupid Bike Chords & Tabs

Foreign Exchange Chords & Tabs

Version: 2 Type: Tab 0 ratings
1 star 2 stars 3 stars 4 stars 5 stars
comments

I Hate This Stupid Bike Tab

   
(This is my first tab. The other one just didn't sound right when I played along, so I 
to tab it myself)

Tabbed by: JoshuaJay
e-mail: jay_lee04@yahoo.com
send me comments, corrections, etc...

Artist: Foreign Exchange
Song: I Hate This Stupid Bike
Album: In Honor: A Compilation To Beat Cancer


Part One
Guitar 1 (Acoustic)
E|-------------------------|
B|-------------------------|
G|-9-9---------------------|
D|-9-9--9---9--6-6--4---4--|
A|-7-7--9---9--4-4--4---4--|
E|------7---7--4-4--2---2--|

Guitar 2 (Electric)
E|--------------------------|
B|--------------------------|
G|-9-9----------------------|
D|-9-9--9---99--6-6--4---44-|
A|-7-7--9---99--4-4--4---44-|
E|------7---77--4-4--2---22-|

Part Two
Guitars 1 & 2 (Both Electric)
E|----------|
B|----------|
G|-9~~~~~~~-|
D|-9~~~~~~~-|
A|-7~~~~~~~-|
E|----------|
  (I wonder what it's like...)

E|--------------------------|
B|--------------------------|
G|-9-9----------------------|
D|-9-9--9---99--6-6--4---44-|
A|-7-7--9---99--4-4--2---22-|
E|------7---77--4-4--2---22-|

Part Three
Guitar 1 (Electric)
E|------------------|
B|------------------|
G|-9999999999999999-|
D|-9999999999999999-|
A|-7777777777777777-|
E|------------------|
    xxxxxxxxxxxxxx
  (Now it'll take a miracle...)


[the first and sixteenth time through it's not palm-muted twice...then it's just the 
time not the sixteenth...did i lose you there?  just listen to the song for when to not 
it.]


Guitar 2 is tacent (doesn't play anything)

Part Four
Guitar 1 (Electric)
E|----------|
B|----------|
G|-99999999-|
D|-99999999-|
A|-77777777-|
E|----------|
    xx xxxx

Guitar 2 (Electric)
E|------------------------|
B|------------------------|
G|-9~~/11~~~~/13~~/14~~~~-|
D|-x---x-------x---x------|
A|-7~~/9~~~~~/11~~/12~~~~-|
E|------------------------| (x3)
[ Tab from: http://www.guitartabs.cc/tabs/f/foreign_exchange/i_hate_this_stupid_bike_tab_ver_2.html ]
fourth time play:
E|------------------------|
B|------------------------|
G|-9~~/11~~~~/16-16-16-16-|
D|-x---x-------x-x--x--x--|
A|-7~~/9~~~~~/14-14-14-14-|
E|------------------------|

Part Five
Guitars One & Two (Both Electric)
E|----------------------------------|
B|----------------------------------|
G|-9999999999999999-----------------|
D|-99999999999999996666666644444444-|
A|-77777777777777776666666622222222-|
E|-----------------4444444422222222-|
  (Well I hate this stupid bike...)

Part Six
Guitar One (Electric)
E|----------------------------------|
B|----------------------------------|
G|-9999999999999999-----------------|
D|-9999999999999999666666664444-44--|
A|-7777777777777777666666662222-22--|
E|-----------------444444442222-22--|
  (Promise me the burning sun...)

Guitar Two (Electric)
E|-------------------------------------------------|
B|-------------------------------------------------|
G|-9--9--9--11-11-11-11-11-13-13-13-14-14-14-14-14-|
D|-x--x--x--x--x--x--x--x--x--x--x--x--x--x--x--x--|
A|-7--7--7--9--9--9--9--9--11-11-11-12-12-12-12-12-|
E|-------------------------------------------------|

E|-------------------------------------------------|
B|-------------------------------------------------|
G|-9--9--9--11-11-11-11-11-9~~~~~~~~~~~~~~~~~~~~---|
D|-x--x--x--x--x--x--x--x--x-----------------------|
A|-7--7--7--9--9--9--9--9--7~~~~~~~~~~~~~~~~~~~~---|
E|-------------------------------------------------|

Lyrics:
I wonder what it's like to make out with those guys from North Dakota.
I wonder what it's like to roll with those guys from Minnesota.

Now it'll take a miracle to forget my mistakes.
Well, I'm fresh out of miracles girl, so pretend we're okay.

Well I hate this stupid bike.
Oh, you'd think that I would be well-liked.
But the boys from Sears could send in the feds.
And the kids from the valley never ruled this place.
Promise me the girls from the beach.
More songs will make me feel better about being dragged along.
Promise me the ocean front.
Promise me the burning sun.


(I think these are right...some parts i'm not sure about though)

Rest In Peace Sean McGrath...
Comments