Ford Lita - Close My Eyes Forever Chords & Tabs

 

Close My Eyes Forever Chords & Tabs

Ford Lita Chords & Tabs

Version: 1 Type: Tab 0 ratings
1 star 2 stars 3 stars 4 stars 5 stars
comments

Close My Eyes Forever Tab

   
THIS IS A VERY EASY & MELODIC SONG YOU'LL LOVE TO PLAY.
JUST GOT TO PAY ATTENTION WHEN TO PLAY EACH RIFF


RIFF#1
E-----------0-------
B-------------0-----
G------5--------5--- X2
D----7---7--------7-
A--0----------------
E-------------------

RIFF#2
E------------------------------------
B------0-----0---------0-----0-------
G----7-----7-----7---7-----7-----7---
D--5-----5-----5---5-----5-----5-----
A------------------------------------
E------------------------------------

E--------------------------0-------
B------0-----0---------0-----0-----
G----5-----5-----5---5---------5---
D--3-----3-----3---3-----3-------3-
A----------------------------------
E----------------------------------

VERSE: 
EVERY TIME OZZY OR LITA SING A LINE YOU HAVE TO
REPEAT RIFF#1 3 TIMES THEN RIFF2 (EACH LINE)

[ Tab from: http://www.guitartabs.cc/tabs/f/ford_lita/close_my_eyes_forever_tab.html ]
CHORUS...
           IF I CLOSE....
E--------------------------------------------0------------------------
B----------0-----------------------------0-----0-----3-----1-----0----
G--------2---2---------2-----2---0-----2---2-----2-----2-----2-----0--
D------3-------3-----3-----3---------2-------------2-----2-----2------
A--3-3-----------3-3-----3-----3---0----------------------------------
E---------------------------------------------------------------------

A#5                       
BUT WOULD YOU EVER TAKE ME

C5                            F5
NO I JUST CAN'T TAKE THE PAIN...


OUTRO: RIFF#1 2 TIMES, RIFF#2 ONE TIME, THEN...
E--------0--
B------0----
G----5------
D-----------
A--0--------
E-----------

HOPE YOU LIKE IT!!!!!
I'LL TRY TO FIGURE OUT THE SOLO NEXT TIME...



SAD BOY & SLOOPY POR VIDA!!!!!
SPRING VALLEY CA.
Comments