For The Wounded - Breakin Up Chords & Tabs

 

Breakin Up Chords & Tabs

For The Wounded Chords & Tabs

Version: 1 Type: Tab 0 ratings
1 star 2 stars 3 stars 4 stars 5 stars
comments

Breakin Up Tab

Song Name: Breakin' Up
Written By: M. Pinder/Q. Rahming
Tuning: Standard

If you want to check out a chessy version of the song,
e-mail me at no_doubt_rules@hotmail.com
The guitars were out of tune and we recorded it on a tape
recorder.


Intro:

Guitar 1 (clean) [wah-wah pedal is used]

E------------------------------------------2(+)--------|
B--------------------------------------------2(+)------|
G------2(+)--------2(+)--------2(+)--------------------|
D--------4(-)--------4(-)--------4(-)------------------|
A------------------------------------------------------|
E--22--------2-22--------22----------2-22--------------|


E------------------------------------------------------|
B------------------------------------------2(+)--------|
G------2(+)--------2(+)--------2(+)----------2(+)------|
D--------4(-)--------4(-)--------4(-)------------------|
A------------------------------------------------------|
E--22--------2-22--------22----------2-22--------------|

Guitar 2 (Dist.) [Comes in right after wah-wah intro]

E------------------------------------------------------|
B------------------------------------------------------|
G------------------------------------------------------|
D--44---4-4---44---4-4---44---4-4---44---4-4-----------|
A--44---4-4---44---4-4---44---4-4---44---4-4-----------|
E--22---2-2---22---2-2---22---2-2---22---2-2-----------|
                        
                       [3RD MEASURE]  

Guitar 3 (Dist.) [Comes in at 3rd measure of 2nd guitar]

E------------------------------------------------------|
B------------------------------------------------------|
G----------------------4(h)----------------------------|
D--------------------------4(h)-5(h)-------------------|
A-----------------------------------9(h)~--------------|
E------------------------------------------------------|

Guitar 2 Cont. (Dist)

E------------------------------------------------------|
B------------------------------------------------------|
G------------------------------------------------------|
D--44----44-44---4-----44---44-44---4------------------|
A--44----44-44---4-----44---44-44---4------------------|
E--22--0-22-22-0-2-----22-0-22-22-0-2------------------|

E------------------------------------------------------|
B------------------------------------------------------|
G------------------------------------------------------|
D--44----44-44---4-----44---44-44-4-4------------------|
A--44----44-44---4-----44---44-44-4-4------------------|
E--22--0-22-22-0-2-----22-0-22-22-2-2------------------|

Guitar 4 (Dist.) [Comes in at 1st measure of Guitar 2 cont]

E--------14----------14----------14----------14--------|
B-----14----14----14----14----14----14----14----14-----|
G--11----------11----------11----------11--------------|
D------------------------------------------------------|
A------------------------------------------------------|
E------------------------------------------------------|

Pre-Verse:

Guitar 1 (Clean)

E------------------------------------------2-----------|
B--------------------------------------------2---------|
G------2-----------2---------2-------------------------|
D--------4-----------4---------4-----------------------|
A------------------------------------------------------|
E--22--------2-22--------22----------2-22--------------|


E------------------------------------------------------|
B------------------------------------------2-----------|
G------2-----------2---------2---------------2---------|
D--------4-----------4---------4-----------------------|
A------------------------------------------------------|
E--22--------2-22--------22----------2-22--------------|

 [     3rd measure    ]

Guitar 3 (Dist.) [Comes in at 3rd measure of Pre-Verse]

E------------------------------------------------------|
B------------------------------------------------------|
G----------------------4(h)----------------------------|
D--------------------------4(h)-5(h)-------------------|
A-----------------------------------9(h)~--------------|
E------------------------------------------------------|

Verse 1:

Guitar 1 (Clean)

E------------------------------------------2-----------|
B--------------------------------------------2---------|
G------2-----------2---------2-------------------------|
D--------4-----------4---------4-----------------------|
A------------------------------------------------------|
E--22--------2-22--------22----------2-22--------------|


E------------------------------------------------------|
B------------------------------------------2-----------|
G------2-----------2---------2---------------2---------|
D--------4-----------4---------4-----------------------|
A------------------------------------------------------|
E--22--------2-22--------22----------2-22--------------|

E------------------------------------------------------|
B------------------------------------------------------|
G------2-----------2---------2-------------2-----------|
D--------4-----------4---------4-------------4---------|
A------------------------------------------------------|
E--22--------2-22--------22----------2-22--------------|


E------------------------------------------2-----------|
B------------------------------------------2-----------|
G------2-----------2---------2-------------2-----------|
D--44----4---4-44----4---44----4-----4-44--4-----------|
A--44--------4-44--------44----------4-44--4-----------|
E--22--------2-22--------22----------2-22--2-----------|

Guitar 2 (Dist.) [Comes in at 3rd measure]

E------------------------------------------------------|
B------------------------------------------------------|
G------------------------------------------------------|
D--44--------4-44--------44----------4-44--4-----------|
A--44--------4-44--------44----------4-44--4-----------|
E--22--------2-22--------22----------2-22--2-----------|

pm[...............]       

Pre-Chorus:

Guitar 1 (Clean)

E--2-2---2-22222---------------------------------------|
B--2-2---3-33333---------------------------------------|
G--2-2---4-44444---------------------------------------|
D--4-4---4-44444---------------------------------------|
A--4-4---2-22222---------------------------------------|
E--2-2-------------------------------------------------|

Guitar 2 (Dist.)

E------------------------------------------------------|
B------------------------------------------------------|
G--------4-44444---------------------------------------|
D--4-4---4-44444---------------------------------------|
A--4-4---2-22222---------------------------------------|
E--2-2-------------------------------------------------|

Guitar 4 (Dist.) 

E--------14----------14----------14----------14--------|
B-----14----14----14----14----14----14----14----14-----|
G--11----------11----------11----------11--------------|
D------------------------------------------------------|
A------------------------------------------------------|
E------------------------------------------------------|

Chorus:

Guitar 1 (Clean)

E--2-2-22-2-2-2-2-2-22-2-2-2--2-2-22-2-2-2/5-5-55-5-5-5|
B--2-2-22-2-2-2-3-3-33-3-3-3--2-2-22-2-2-2/5-5-55-5-5-5|
G--2-2-22-2-2-2-4-4-44-4-4-4--2-2-22-2-2-2/6-6-66-6-6-6|
D--4-4-44-4-4-4-4-4-44-4-4-4--4-4-44-4-4-4/7-7-77-7-7-7|
A--4-4-44-4-4-4-2-2-22-2-2-2--4-4-44-4-4-4/7-7-77-7-7-7|
E--2-2-22-2-2-2---------------2-2-22-2-2-2/5-5-55-5-5-5|

Guitar 2 (Dist.)

E------------------------------------------------------|
B------------------------------------------------------|
G---------------4-4-44-4-4-4---------------------------|
D--4-4-44-4-4-4-4-4-44-4-4-4--4-4-44-4-4-4/7-7-77-7-7-7|
A--4-4-44-4-4-4-2-2-22-2-2-2--4-4-44-4-4-4/7-7-77-7-7-7|
E--2-2-22-2-2-2---------------2-2-22-2-2-2/5-5-55-5-5-5|

Guitar 3 (Dist.) 

E-------------------------------------------------------|
B-------------------------------------------------------|
G-----------------4-444-7-666666------------------------|
D--444-4-7-444444-x-xxx-x-xxxxxx-444-4-7-444444-77777777|
A--xxx-x-x-xxxxxx-2-222/5\444444-xxx-x-x-xxxxxx-xxxxxxxx|
E--222-2/5\222222----------------222-2/5\222222/55555555|

Fill Before Pre-verse:

Guitar 3 (Dist.) [Comes in at 3rd measure of Bass fill]
[ Tab from: http://www.guitartabs.cc/tabs/f/for_the_wounded/breakin_up_tab.html ]
E------------------------------------------------------|
B------------------------------------------------------|
G----------------------4(h)----------------------------|
D--------------------------4(h)-5(h)-------------------|
A-----------------------------------9(h)~--------------|
E------------------------------------------------------|

Pre-Verse:

Guitar 1 (Clean)

E------------------------------------------2-----------|
B--------------------------------------------2---------|
G------2-----------2---------2-------------------------|
D--------4-----------4---------4-----------------------|
A------------------------------------------------------|
E--22--------2-22--------22----------2-22--------------|


E------------------------------------------------------|
B------------------------------------------2-----------|
G------2-----------2---------2---------------2---------|
D--------4-----------4---------4-----------------------|
A------------------------------------------------------|
E--22--------2-22--------22----------2-22--------------|

Guitar 2 (Dist.)[Comes in at 3rd measure of Guitar 1)

E------------------------------------------------------|
B------------------------------------------------------|
G------------------------------------------------------|
D--44--------4-44--------44----------4-44--------------|
A--44--------4-44--------44----------4-44--------------|
E--22--------2-22--------22----------2-22--------------|

Guitar 3 (Dist.) [Comes in with Guitar 2]

E------------------------------------------------------|
B------------------------------------------------------|
G----------------------4(h)----------------------------|
D--------------------------4(h)-5(h)-------------------|
A-----------------------------------9(h)~--------------|
E------------------------------------------------------|



Guitar 4 (Dist.)[Comes in with Guitar 2]

E------------------------------------------------------|
B------------------------------------------------------|
G-11-12-11---------------------------------------------|
D--x-xx-x----------------------------------------------|
A--9/10\9----------------------------------------------|
E------------------------------------------------------|

Verse 2:

Guitar 1 (Clean)

E------------------------------------------2-----------|
B--------------------------------------------2---------|
G------2-----------2---------2-------------------------|
D--------4-----------4---------4-----------------------|
A------------------------------------------------------|
E--22--------2-22--------22----------2-22--------------|

E------------------------------------------2-----------|
B------------------------------------------2-----------|
G------2-----------2---------2-------------2-----------|
D--44----4---4-44----4---44----4-----4-44--4-----------|
A--44--------4-44--------44----------4-44--4-----------|
E--22--------2-22--------22----------2-22--2-----------|

Guitar 2 (Dist.) [Comes in at 3rd measure]

E------------------------------------------------------|
B------------------------------------------------------|
G------------------------------------------------------|
D--44--------4-44--------44----------4-44--4-----------|
A--44--------4-44--------44----------4-44--4-----------|
E--22--------2-22--------22----------2-22--2-----------|

pm[...............]  

Pre-Chorus

Chorus

Fill Before the Solo:

Guitar 3 (Dist.) [Comes in at 3rd measure of Bass fill]

E------------------------------------------------------|
B------------------------------------------------------|
G----------------------4(h)----------------------------|
D--------------------------4(h)-5(h)-------------------|
A-----------------------------------9(h)~--------------|
E------------------------------------------------------|

Solo:

Guitar 4 (Dist.) [wah-wah]

E--2-4-5-4-----------7/10-9----10-9----12--------------|
B-----------5-5/7-5---------10------12-----------------|
G------------------------------------------------------|
D------------------------------------------------------|
A------------------------------------------------------|
E------------------------------------------------------|

E--14-16-17-16----17-17/19-16--------19~~-22-21--------|
B--------------17-------------17-19--------------------|
G------------------------------------------------------|
D------------------------------------------------------|
A------------------------------------------------------|
E------------------------------------------------------|

E------------------------------------------------------|
B---------------------------------------------------12\|
G-------9h11-------9h11------12-11------12-9-12-11--11\|
D----11---------11--------11---------11----------------|
A--9---------9----------9----------9-------------------|
E------------------------------------------------------|

Guitar 2 (Dist.) [Comes in at 3rd measure of solo]

pickslide!

E------------------------------------------------------|
B------------------------------------------------------|
G--11-11-11-11-11-11-11-11-11-11-----------------------|
D--11-11-11-11-11-11-11-11-11-11--4-4-4-4-4-4-4-4-4-4-4|
A---9--9--9--9--9--9--9--9--9--9--4-4-4-4-4-4-4-4-4-4-4|
E---------------------------------2-2-2-2-2-2-2-2-2-2-2|


Guitar 1 (Clean) [Comes in at 3rd measure of solo]

E-----17-------17--------------------------------------|
B--19----19-19----19-----------------------------------|
G--18-------18---------ETC..---------------------------|
D--16-------16-----------------------------------------|
A------------------------------------------------------|
E------------------------------------------------------|

Guitar 3 (Dist.) [Comes in at 3rd measure of solo]

E------------------------------------------------------|
B------------------------------------------------------|
G-11-12-11---------------------------------------------|
D--x-xx-x----------------------------------------------|
A--9/10\9----------------------------------------------|
E------------------------------------------------------|

Pre-Chorus:

Guitar 2 (Dist.) 

E------------------------------------------------------|
B------------------------------------------------------|
G------------------------------------------------------|
D--44-----4-44-----44-----4-44--44---4-44--------------|
A--44-----4-44-----44-----4-44--44---4-44--------------|
E--22-----2-22-----22-----2-22--22---2-22------slide---|

Guitar 4 (Dist.) [wah wah]

E------------------------------------------------------|
B------------------------------------------------------|
G--11-11-11-11-11-11-11-11-11-11-11-11-11-11-11-11-11--|
D------------------------------------------------------|
A------------------------------------------------------|
E------------------------------------------------------|

Chorus

Guitar 4 (dist.) [wah-wah]

E-----------19--22-21-------------22--21---------------|
B--19-22-19-----------19-22-19-22----------------------|
G------------------------------------------------------|
D------------------------------------------------------|
A------------------------------------------------------|
E------------------------------------------------------|
REPEAT 3X THEN,

E-----------22-21----19--------------------------------|
B--19-22-19-------22----19~~~--------------------------|
G------------------------------------------------------|
D------------------------------------------------------|
A------------------------------------------------------|
E------------------------------------------------------|

Outro:

Guitar 3 (Dist.) 

E------------------------------------------------------|
B------------------------------------------------------|
G------------------------------------------------------|
D------------------------------------------------------|
A-----------------------------4-0----------------------|
E--22-0-22-22-0-2--22-0-22-22--------------------------|
REPEAT 2X

Guitar 2 (Dist.) [Comes in at 2nd time]

E------------------------------------------------------|
B------------------------------------------------------|
G------------------------------------------------------|
D--44--4-4--44--4-4-7~~--------------------------------|
A--44--4-4--44--4-4-7~~--------------------------------|
E--22--2-2--22--2-2-5~~--------------------------------|
Comments