For Squirrels - Superstar Chords & Tabs

 

Superstar Chords & Tabs

For Squirrels Chords & Tabs

Version: 1 Type: Tab 0 ratings
1 star 2 stars 3 stars 4 stars 5 stars
comments

Superstar Tab

   
Tabbed by: Josh Johnson 

Solo and chorus correction for the chords that are played the 4th time by:

Andrew 



Standard Tuning -E-A-D-G-B-E-





Intro  (play 3x)

e|---------------------------------|
b|---------------------------------|
g|---------------------------------|
D|-2-2-2-2-2-2-2-2-2-2-2-2-2-2-2-2-|
A|-2-2-2-2-2-2-2-2-2-2-2-2-2-2-2-2-|
E|-0-0-0-0-0-0-0-0-0-0-0-0-0-0-0-0-|



verse
[ Tab from: http://www.guitartabs.cc/tabs/f/for_squirrels/superstar_tab.html ]
e|----------0------------------0---------|
b|----------0------------------0---------|
g|----------1------------------1---------|
d|-0h2----------------0h2----------------|
a|-0h2----------------0h2----------------|
e|-0------------------0------------------|



chorus  (play 3x)

e|---------------------------------|
b|---------------------------------|
g|-7---7-7-5---4-4---2-2-2-2-2-2-2-|
d|-7---7-7-5---4-4---2-2-2-2-2-2-2-|
a|-5---5-5-3---2-2---0-0-0-0-0-0-0-|
e|---------------------------------|

(play 4th time)

e|---------------------------------|
b|---------------------------------|
g|-2---2-2-------------------------|
d|-2---2-2-5---4-4---2-2-2-2-2-2-2-|
a|-0---0-0-5---4-4---2-2-2-2-2-2-2-|
e|---------3---2-2---0-0-0-0-0-0-0-|



That little solo thing

e|---------------------------------| 
b|---------------------------------| 
g|-------------------------------4-| 
d|-----5-7-----5-7-----5-7-7-5-7---|
a|-5-7-----5-7-----5-7-------------|
e|---------------------------------| 
Comments