For Squirrels - Stark Pretty Chords & Tabs

 

Stark Pretty Chords & Tabs

For Squirrels Chords & Tabs

Version: 1 Type: Tab 0 ratings
1 star 2 stars 3 stars 4 stars 5 stars
comments

Stark Pretty Tab

   
Music by For Squirrels

Tabbed by: Josh Johnson 



Standard Tuning -E-A-D-G-B-E-





intro and chorus

e|---------------------------------|
b|---------------------------------|
g|---------------------------------|
d|---------------------------------|
a|-----7-------9-------7-----------|
e|-9-9---7-7-7---5-5-5---7-7-7-7-7-|



this is the verse and it's variations
[ Tab from: http://www.guitartabs.cc/tabs/f/for_squirrels/stark_pretty_tab.html ]
e|----------------------------4^5^4^5^4-|
b|---4-5------------5-------------------|
g|-6--------------------6---4-----------|
d|--------------------------------------|
a|--------------------------------------|
e|--------------------------------------|



e|----------------------------4^5^4^5---|
b|---4-5------------5-------------------|
g|-6--------------------6---4---------4-|
d|--------------------------------------|
a|--------------------------------------|
e|--------------------------------------|



e|----------------------------16^17^16^17^16-|
b|---4-5------------5------------------------|
g|-6--------------------6---4----------------|
d|-------------------------------------------|
a|-------------------------------------------|
e|-------------------------------------------|
Comments