For Love Not Lisa - Swallow Chords & Tabs

 

Swallow Chords & Tabs

For Love Not Lisa Chords & Tabs

Version: 1 Type: Tab 0 ratings
1 star 2 stars 3 stars 4 stars 5 stars
comments

Swallow Tab

   
#----------------------------------PLEASE NOTE---------------------------------#
#This file is the author's own work and represents their interpretation of the #
#song. You may only use this file for private study, scholarship, or research. #
#------------------------------------------------------------------------------##
From: Keith18NJ@aol.com
Subject: TAB: "Swallow" by For Love Not Lisa

"Swallow" by For Love Not Lisa

/ = slide

chords:
E5  (022x00)
F5  (133xxx)
F#5  (244xxx)
G5  (355xxx)
A5  (577xxx)
B5  (x244xx)
Cadd9  (x32030)
Cadd9(ii)  (x32033)
D5  (x577xx)
Dsus2  (x00230)
Dsus4  (x00233)


verse:
Dsus2    Cadd9
i'm not gonna bother tabbing this out, but it's pretty basic anyway.  once in
a while add in Dsus4  and Cadd9(ii).

chorus:
   G5                                   A5  N.C.  A5
---------------------------------------------|
---------------------------------------------|
---------------------------------------------|
--5---5---5-5-5--5-5--5/7------7--7--7-7-----|
--5---5---5-5-5--5-5--5/7------7--7--7-7-----|
--3---3---3-3-3--3-3--3/5------5--5--5-5-----|
[ Tab from: http://www.guitartabs.cc/tabs/f/for_love_not_lisa/swallow_tab.html ]
bridge:
  Asus2           G5                    F#5                G5
-------0------------3-------------2------------3----|
-------0------------3-------------2------------3----|
----------------------------------------------------|
--2----------5--5---------4--4---------5----5-------|
--0----------5--5---------4--4---------5----5-------|
-------------3--3---------2--2---------3----3-------|

  Asus2           G5                    F#5              F5
-------0------------3---------2--2------1--1--1----|
-------0------------3---------2--2------1--1--1----|
---------------------------------------------------|
--2----------5--5---------4---4--4---3--3--3--3----|
--0----------5--5---------4---4--4---3--3--3--3----|
-------------3--3---------2---2--2---1--1--1--1----|

then when the distortion goes on, it's:
A5  G5  F#5  G5
A5  G5  F#5  F5   (using the chords from the list at the beginning of this
post)

then the chorus is played again, letting A5 ring as he says something, then
screams "as we ride.....ride,"  then play this:
E5  Dsus2     (x2)
A5  G5  B5  D5  (x4)
A5  G5  F#5  F5  ('til end of song)

-keith
Comments