For Amusement Only - Summer Nights Chords & Tabs

 

Summer Nights Chords & Tabs

For Amusement Only Chords & Tabs

Version: 1 Type: Tab 0 ratings
1 star 2 stars 3 stars 4 stars 5 stars
comments

Summer Nights Tab

This song was only played live on radio once on Triple J last year, but the
basics of the song are pretty simple, so if you have heard it live, or taped
the recording on Triple J, here you go....

This is the rhythm guitar, not lead...

Intro:

------------------------------------------------------------------------
------------------------------------------------------------------------
------------------------------------------------------------------------
--3--------------------------------------3---7---8---10-----------------
--3----let ring--------------------------3---7---8---10-----------------
--1--------------------------------------1---5---6---8------------------

Verse:

------------------------------------------------------------------------
------------------------------------------------------------------------
------------------------------------------------------------------------
--3---8---10------------------------------------------------------------
--3---8---10------------------------------------------------------------
--1---6---8-------------------------------------------------------------

Pre Chorus:

------------------------------------------------------------------------
------------------------------------------------------------------------
------------------------------------------------------------------------
--8---10----------------------------------------------------------------
--8---10----------------------------------------------------------------
--6---8-----------------------------------------------------------------

Chorus:
[ Tab from: http://www.guitartabs.cc/tabs/f/for_amusement_only/summer_nights_tab.html ]
------------------------------------------------------------------------
------------------------------------------------------------------------
------------------------------------------------------------------------
---3---10---8---10------------------------------------------------------
---3---10---8---10------------------------------------------------------
---1---8----6---8-------------------------------------------------------

Play the same for the part after the second chorus, Before the bridge...

The Bridge is Bass and a solo which I haven't tabbed...

Order: 

Intro/Outro
Verse
Pre Chorus
Chorus
Intro/Outro
Verse
Pre Chorus 
Chorus

The song then leads into a slower bridge, then following that it builds up and
plays the Intro/Outro to close...

Lyrics:

Verse: 
It's not getting easier like i said
I can't get your face right out of my head
I'm spending hours by the phone
Finding what it's like to feel alone

Pre Chorus: 
My head is spinning right around. My feet can't touch the ground

Chorus:
Just I'm missing, sugar, sweet kissing
Summer Nights so long
And i'm guessing that you're not forgetting
Summer Nights so long are over now

Verse 2:
It's getting harder to forget
Things we said but now regret
I'm spending hours by the phone
Finding what it's like to feel alone

Pre Chorus:
My head is spinning right around. My feet can't touch the ground

Chorus:
Just I'm missing, sugar, sweet kissing
Summer Nights so long
And i'm guessing that you're not forgetting
Summer Nights so long are over now

Bridge:
I can't go and let go and leave it all behind me
'Cus i won't go and let go and leave it all behind me

Cheers, I hope that helps some people...
Comments