For Amusement Only - Start Again Chords & Tabs

 

Start Again Chords & Tabs

For Amusement Only Chords & Tabs

Version: 1 Type: Tab 0 ratings
1 star 2 stars 3 stars 4 stars 5 stars
comments

Start Again Tab

   
-----------------------------------------------------------              start again - for amusement only            
-----------------------------------------------------------

intro-G-1
e|-----------------------------------------------
B|-----------------------------------------------
G|-4--4--4--4--4--4--4--4--4--4--4--4--4--4--4--4
D|-X--X--X--X--X--X--X--X--X--X--X--X--X--X--X--X
A|-2--2--2--2--2--2--2--2--2--2--2--2--2--2--2--2
E|-----------------------------------------------

intro-G-2
e|-----------------------------------------------
B|-----------------------------------------------
G|------------------------11-11-11-11-11-11-11-11
D|-------------------------X--X--X--X--X--X--X--X
A|-------------------------9--9--9--9--9--9--9--9
E|-----------------------------------------------

verse X2 G-1
e|-----------------------------------------------
B|-----------------------------------------------
G|-4-4-4-4----4-4-4-4----------------------------
D|-4-4-4-4----4-4-4-4----2-2-2-2----4-4-4-4------
A|-2-2-2-2----2-2-2-2----2-2-2-2----4-4-4-4------
E|-----------------------0-0-0-0----2-2-2-2------

verse G-2
e|-----------------------------------------------
B|-----------------------------------------------
G|-4-4-4-4----4-4-4-4----4-4-4-4-----------------
D|-X-X-X-X----X-X-X-X----X-X-X-X----4-4-4-4------
A|-2-2-2-2----2-2-2-2----2-2-2-2----X-X-X-X------
E|----------------------------------2-2-2-2------

e|-------------------------------------------------
B|-------------------------------------------------
G|-4-4-4-4-4-4-4-4-4-4-4-4-4-4-4-4--6-6-6-6-6-6-6-6
D|-X-X-X-X-X-X-X-X-X-X-X-X-X-X-X-X--X-X-X-X-X-X-X-X
A|-2-2-2-2-2-2-2-2-2-2-2-2-2-2-2-2--4-4-4-4-4-4-4-4
E|-------------------------------------------------

prechorus x2-G-1&2
E|-----------------------------------------------
B|-----------------------------------------------
G|-----------------------------------------------
D|-6-6-6-6-6-6-6-6----2-2-2-2----4-4-4-4---------
A|-6-6-6-6-6-6-6-6----2-2-2-2----4-4-4-4---------
E|-4-4-4-4-4-4-4-4----0-0-0-0----2-2-2-2---------
[ Tab from: http://www.guitartabs.cc/tabs/f/for_amusement_only/start_again_tab.html ]
chorus x2 G-1&2
e|------------------------------------------
B|------------------------------------------
G|-4-4-4-4-4-4-4-4--------------------------
D|-4-4-4-4-4-4-4-4----2-2-2-2-2-2-2-2-------
A|-2-2-2-2-2-2-2-2----2-2-2-2-2-2-2-2-------
E|--------------------0-0-0-0-0-0-0-0-------

e|-----------------------------------------------
B|-----------------------------------------------
G|-----------------------------------------------
D|-6-6-6-6-6-6-6-6----4-4-4-4-4-4-4-4------------
A|-6-6-6-6-6-6-6-6----4-4-4-4-4-4-4-4------------
E|-4-4-4-4-4-4-4-4----2-2-2-2-2-2-2-2------------

verse
pre chorus
chorus
bridge x4 G-1
e|-2---------2-----------2------------------------
B|------0----------0----------0--0-0-0---2--------
G|---3----------3----------3-----------3---3------
D|------------------------------------------------
A|------------------------------------------------
E|------------------------------------------------

G-2
e|-----------------------------------------------
B|-----------------------------------------------
G|-4---------------------------------------------
D|-4--------------------4----------2-------------
A|-2--------------------4----------2-------------
E|----------------------2----------0-------------


e|------------------------------------------
B|------------------------------------------
G|-4-4-4-4-4-4-4-4----9-9-9-9-9-9-9-9-------
D|-4-4-4-4-4-4-4-4----9-9-9-9-9-9-9-9-------
A|-2-2-2-2-2-2-2-2----7-7-7-7-7-7-7-7-------
E|------------------------------------------

e|------------------------------------------
B|------------------------------------------
G|-4-4-4-4-4-4-4-4--------------------------
D|-4-4-4-4-4-4-4-4----4-4-4-4-4-4-4-4-------
A|-2-2-2-2-2-2-2-2----4-4-4-4-4-4-4-4-------
E|--------------------2-2-2-2-2-2-2-2-------

post bridge
G-1 2nd plays in the last8
e|----------------------------------------------------
B|----------------------------------------------------
G|11-11-11-11-11-11-11-11-11-11-11-11-11-11-11-11----4
D|-X--X--X--X--X--X--X--X--X--X--X--X--X--X--X--X----4
A|-9--9--9--9--9--9--9--9--9--9--9--9--9--9--9--9----2
E|----------------------------------------------------
verse 
chorus 
finish
chorus x2 G-1&2
e|---------------------------------------------------------
B|---------------------------------------------------------
G|4-4-4-4-4-4-4-4-------------------4-4-4-4-4-4-4-4---4-4-4
D|4-4-4-4-4-4-4-4--2-2-2-2-2-2-2-2--4-4-4-4-4-4-4-4---4-4-4
A|2-2-2-2-2-2-2-2--2-2-2-2-2-2-2-2--2-2-2-2-2-2-2-2---2-2-2
E|-----------------0-0-0-0-0-0-0-0-------------------------
  * * * * * * * *  * * * * * * * *  * * * * * * * *
Comments