For Amusement Only - Set The Story Straight Chords & Tabs

 

Set The Story Straight Chords & Tabs

For Amusement Only Chords & Tabs

Version: 1 Type: Bass Tab 0 ratings
1 star 2 stars 3 stars 4 stars 5 stars
comments

Set The Story Straight Bass Tab

song: SET THE STORY STRAIGHT
artist: FOR AMUSEMENT ONLY
cd: ep - where did we go wrong
tabbed by Emily Sommer punk_rock_academy007@hotmail.com 

E-------------------11111111--3333333333333333-------------------------
A--3333333333333333----------------------------------------------------
D----------------------------------------------------------------------
G----------------------------------------------------------------------

E-----1-111--333---------------------------------------------------------
A--3---------------------------------------------------------------------
D------------------------------------------------------------------------
G------------------------------------------------------------------------

E--------5555--1111--3333-------------------------------------------------
A--3333-------------------------------------------------------------------
D------------------------------------------------------------------------- X2
G-------------------------------------------------------------------------

E-----------55555555--11111111--33333333--------------------------------
A--33333333-------------------------------------------------------------
D------------------------------------------------------------------------ X2
G------------------------------------------------------------------------

E-------5555--1111--3333--------------------------------------------------
A--3333-------------------------------------------------------------------
D------------------------------------------------------------------------- X4
G-------------------------------------------------------------------------
[ Tab from: http://www.guitartabs.cc/tabs/f/for_amusement_only/set_the_story_straight_btab.html ]
E-----------55555555--11111111--33333333--------------------------------
A--33333333-------------------------------------------------------------
D-----------------------------------------------------------------------
G-----------------------------------------------------------------------

E------------5555555511111111--3 (x24)---------------------------------
A--33333333-------------------------------------------------------------
D-----------------------------------------------------------------------
G-----------------------------------------------------------------------

E-------5555--1111--3333-------------------------------------------------
A--3333------------------------------------------------------------------
D------------------------------------------------------------------------ X4
G------------------------------------------------------------------------

E------------55555555--11111111--33333333------------------------------
A--33333333-------------------------------------------------------------
D-----------------------------------------------------------------------
G-----------------------------------------------------------------------

E----1--3(x17)----------------------------------------------------------
A--3---------------------------------------------------------------------
D------------------------------------------------------------------------
G------------------------------------------------------------------------

E-------5555--1111--3333------------------------------------------------
A--3333-----------------------------------------------------------------
D----------------------------------------------------------------------- X6
G-----------------------------------------------------------------------
Comments