Foo Fighters - X Static Chords & Tabs

 

X Static Chords & Tabs

Foo Fighters Chords & Tabs

Version: 1 Type: Tab 0 ratings
1 star 2 stars 3 stars 4 stars 5 stars
comments

X Static Tab

Tabbed by Adam O'Neil (irishlad_25@yahoo.com)

Hello.  This is my first time submitting tab online.  I have read over some
of the other tab interpretations of this song and they suck.  So here is my 
interpretation and as far as I am concerned it is the closest you will get 
to how Dave plays it.  If you can prove me wrong do so.

	Intro/Verse:

E:----------------------------------|
B:----------------------------------|
G:----8---8---8---8-8-8-8-8---8---8-|
D:----8---8---8---8-8-8-8-8---8---8-|
A:--5/6---6---6---6-6-6-6-6---6---6-|
E:----------------------------------|


	Verse: (2nd guitar)

E:--------------------------------------------------------|
B:--------------------------------------------------------|
G:--------------------------------------------------------|
D:--------------------------------------------------------|
A:-6---6---6---6---6---6---6---6---6---6---6---6---6---6--|
E:-6---6---6---6---6---6---5---4---4---4---4---4---4---6--|


E:--------------------------------------------------------|
B:--------------------------------------------------------|
G:--------------------------------------------------------|
D:--------------------------------------------------------|
A:-4---4---4---4---4---4---4---3---3---3---3---3---3---2--|
E:-2---2---2---2---2---2---3---4---4---4---4---4---4---3--|

[ Tab from: http://www.guitartabs.cc/tabs/f/foo_fighters/x_static_tab.html ]
E:--------------------------------------------------------|
B:--------------------------------------------------------|
G:--------------------------------------------------------|
D:--------------------------------------------------------|
A:-1---1---1---1---1---1---3---0---0---0---0---0---0---1--|
E:-2---2---2---2---2---2---4---1---1---1---1---1---1---2--|


E:------------------------------------------------------------|
B:------------------------------------------------------------|
G:------------------------------------------------------------|
D:------------------------------------------------------------|
A:-1---1---1---1---1---1---1---1---1---1---1---1---1---1---1--|
E:-3---3---3---3---3---3---3---3---3---3---3---3---3---3---3--|

			(repeat)

	Chorus: (all guitars)

E:-----------------------------------------------------------|
B:-----------------------------------------------------------|
G:-5---5---5---5---3---3---3---2---2-------------------------|
D:-5---5---5---5---3---3---3---2---2---3---3---3---3---3---3-|
A:-3---3---3---3---1---1---1---0---0---3---3---3---3---3---3-|
E:-------------------------------------1---1---1---1---1---1-|


E:------------------------------------------------------------|
B:------------------------------------------------------------|
G:-6---6---6---6---5---5---5---4------------------------------|
D:-6---6---6---6---5---5---5---4------------------------------|
A:-4---4---4---4---3---3---3---2------4------6------8------8\-|
E:------------------------------------------------------------|

			(back to verse)
Comments