Foo Fighters - What If I Do Chords & Tabs

 

What If I Do Chords & Tabs

Foo Fighters Chords & Tabs

Version: 2 Type: Tab 0 ratings
1 star 2 stars 3 stars 4 stars 5 stars
comments

What If I Do Tab

-----------------------------------------------------------------------------
			     what if i do solo - foo fighters
-----------------------------------------------------------------------------
Tabbed by: rob 

the guy who tabbed teh song seemed right sept teh solo didnt so this is how i play pritty simple realy

Tuning: EADGBe

e|--------------------------------------------------------------------------|
B|---14-14b15r14--12-14-----------------------------------------------------|
G|-----------------------14-14b15r-12-15---------------------12-12-15-15-12-|
D|----------------------------------------14-14b15r14-12-14-----------------|
A|--------------------------------------------------------------------------|
E|--------------------------------------------------------------------------|
[ Tab from: http://www.guitartabs.cc/tabs/f/foo_fighters/what_if_i_do_tab_ver_2.html ]
e|--------------------------------------------------------------------------|
B|---14-14b15r14--12-14-----------------------------------------------------|
G|-----------------------14-14b15r-12-15---------------------12-12-15-15-12-|
D|----------------------------------------14-14b15r14-12-14-----------------|
A|--------------------------------------------------------------------------|
E|--------------------------------------------------------------------------|


e|--------------------------------------------------------------------------|
B|--------------------------------------------------------------------------|
G|--12-10-9-----------------------------------------------------------------|
D|--------------------------------------------------------------------------|
A|--------------------------------------------------------------------------|
E|--------------------------------------------------------------------------|


=============================================================================
Comments