Foo Fighters - Weenie Beenie Chords & Tabs

 

Weenie Beenie Chords & Tabs

Foo Fighters Chords & Tabs

Version: 3 Type: Tab 0 ratings
1 star 2 stars 3 stars 4 stars 5 stars
comments

Weenie Beenie Tab

Band/artist: Foo fighters
Album: Foo fighters
Song: Weenie beenie (track 7)
Year: 1995

Normal turning

INTRO/VERSE:
e-----------------0-1-1-1-0-1-1-1-----------------0-1-1-1-0-1-1-0-|
b-----------------------------------------------------------------|
g--3-3-3--5--5-5-------------------3-3-3--5--5-5------------------| play as
d--3-3-3--5--5-5-------------------3-3-3--5--5-5------------------| many times
a--1-1-1--3--3-3-------------------1-1-1--3--3-3------------------|
e-----------------------------------------------------------------|

CHORUS:
e-------------------------------------|
b-------------------------------------|
g-------------------------------------|
d--8--8-8--6--6-6-6-6-6-6-6-6-6-6-6-6-| play as many times
a--8--8-8--6--6-6-6-6-6-6-6-6-6-6-6-6-|
e--6--6-6--4--4-4-4-4-4-4-4-4-4-4-4-4-|
[ Tab from: http://www.guitartabs.cc/tabs/f/foo_fighters/weenie_beenie_tab_ver_3.html ]
BRIDGE (i'm not too sure on this):
e--------------------------------|
b--------------------------------|
g--------------------------------|
d----------3-------------1-------| plasy as many times
a----------3-------------1-------|
e--1-2-3-3---3-2-1-0-1-2---3-2-1-|

The ending riff is the only thing I can't figure out. It goes in the rhythm of the 
but I can't quite get it yet.

Lyrics (they might be wrong, but this is what I think they are):

I'm mollasses
Hung in rent
Read a sponser
One shot, no post show

Tear it off
But not a lot
It's only enough to debate

As if you blame
Real and stagnate
Real and stagnate
Big shit, no shit

Tear it off
But not a lot
Only so much you can take

Some try to hit that
Beast and mud lead
Beast and mud lead
Big shit, no shit

Tear it off
But not a lot
Only so much you can take

As if you're to blame
Real and stagnate
Real and stagnate
Big shit, no duh

Tear it off
But not a lot
It's only enough to debate

I'm molasses
Hung in rent
Reas a sponser
One shot, no post-show

Tear it off
But not a lot
Only so much you can take

One shot nothing (keep repeating until you the end)
Comments