Foo Fighters - Weenie Beenie Chords & Tabs

 

Weenie Beenie Chords & Tabs

Foo Fighters Chords & Tabs

Version: 1 Type: Bass Tab 0 ratings
1 star 2 stars 3 stars 4 stars 5 stars
comments

Weenie Beenie Bass Tab

Weenie Beenie-Foo Fighters   Bass Tab
Transcribed by Jamie Dalgetty (jdalg@village.ca)
--------------------------------------------------------------------



  Verse Riff
G:|----------------------|
D:|*--------------------*|
A:|*--1--1--1--3--3--3--*|
E:|----------------------|




[ Tab from: http://www.guitartabs.cc/tabs/f/foo_fighters/weenie_beenie_btab.html ]
  play this once through, then continue with verse riff
G:---------------------------------------------------------------------------|
D:---------------------------------------------------------------------------|
A:---------------------------------------------------------------------------|
E:4--4--4--4--4--4--4--4--4--4--4--4--6--6--6--4--4--4--4--4--4--4--4--4--4--|





                              Bridge Part, may not be right
G:------------------------|-----------------------------------------------|
D:------------------------|*---------------------------------------------*|
A:---------------3--3--3--|*---------3--------------------1--------------*|
E:4--4--6--6--6-----------|-1--1--1-----3--3--3--1--1--1-----1--1--0--0---|






Comments