Foo Fighters - Walking After You Chords & Tabs

 

Walking After You Chords & Tabs

Foo Fighters Chords & Tabs

Version: 3 Type: Tab 0 ratings
1 star 2 stars 3 stars 4 stars 5 stars
comments

Walking After You Tab

   
#----------------------------------PLEASE NOTE---------------------------------#
#This file is the author's own work and represents their interpretation of the #
#song. You may only use this file for private study, scholarship, or research. #
#------------------------------------------------------------------------------#
Foo Fighters
Walking After You
Tabber: Uunknown
--------------------------------------
***Strum,then A, then play B over:***
--------------------------------------

------------
***Play A***
------------

------------------
***Play C over:***
------------------
If you walk out on me, I'm walking after you..
------------
***Play A***
------------

------------------
***Play B over:***
------------------
If you'd accept surrender ect.
------------
***Play A***
------------

-------------------------------
***Play C, then bridge over:***
-------------------------------
If you walk out on me, I'm walking after you..
------------------
***Play D over:***
------------------

----------
***A x3***
----------

---------------------------
***Play E, halfway sing:***
---------------------------

------------
***Play A***
------------

--------------------------------------
***Play C,F,C part 2,bridge,D over:***
--------------------------------------
If you walk out on me, I'm walking after you..
------------------------------------
***Play A x3, then 4x4xxx(ebgdaE)***
------------------------------------

Strum                                    Riff A
-----                                    ------
e|0---0-0---0-0-0-0---0-0---0-0-0|       e|0---2---2/4---0---5---4---2---0|
b|0---0-0---0-0-0-0---0-0---0-0-0|       b|-------------------------------|
g|1---1-1---1-1-1-1---1-1---1-1-1|       g|1---2---2/4---1---6---4---2---1|
d|2---2-2---2-2-2-2---2-2---2-2-2|       d|-------------------------------|
a|2---2-2---2-2-2-2---2-2---2-2-2|       a|-------------------------------|
E|0---0-0---0-0-0-0---0-0---0-0-0|       E|-------------------------------|

Riff B
------
e|4---4-------0-----0-----5-----------6---------5-----5-------5-------5-----4---4---0---0-------|
b|x---x---0-----0-----0---x---0---5-------5-----2---0-2---0-2---0-0-----0---0---0-------0------0|
g|4---4-----4-----1-------6---------6-------6-----------------------------------4-------1-------|
d|----------------------------------------------------------------------------------------------|
a|----------------------------------------------------------------------------------------------|
E|----------------------------------------------------------------------------------------------|
[ Tab from: http://www.guitartabs.cc/tabs/f/foo_fighters/walking_after_you_tab_ver_3.html ]
e|5---5-------------6-------5-----5-------------5-----5-----4---4-------0---0-------5----------|
b|x---x---0---0-5-------5---x---0-x---0---0-0-----0-----0-------0---0-------0---0---x-----0---0|
g|6---6-----------6-------6-6-----6-----------------------------------------1-----1-6---6------|
d|---------------------------------------------------------------------------------------------|
a|---------------------------------------------------------------------------------------------|
E|---------------------------------------------------------------------------------------------|

e|-------6---0-------5-------5-----5-----5--|
b|---7---7-------0-0-x---0-----0-----0-----0|
g|-------------------6----------------------|
d|------------------------------------------|
a|------------------------------------------|
E|------------------------------------------|

Riff C
------
e|2-----2-----2-----2-----2-----0-----0-----0-----0-----0---------0---0-2-0-----0-----0--|
b|x-------0-----0-----0-----0-----0-----0-----0-----0-----0---0-------------0-----0-----0|
g|3---3-----3-----3-----3-----------6-----6----------------------------------------------|
d|---------------------------------------------------------------------------------------|
a|---------------------------------------------------------------------------------------|
E|---------------------------------------------------------------------------------------|
Riff C part 2                                             Bridge
-------------                                             ------
e|-------2-----2-----2-----0-----------0-----------0----| e|4---4---4---4|
b|---------0-----0-----0-----0---0-0-------0---0-------0| b|--0---0---0--|
g|---3-------3-----3-----3-----3------------------------| g|-------------|
d|------------------------------------------------------| d|-------------|
a|------------------------------------------------------| a|-------------|
E|------------------------------------------------------| E|-------------|

Riff D
------
e|0-----0-----0---0-----0-----------0------0-------------0------0------2-----0-----2-----2---0--|
b|--0-----0-----0---0-----0-------0------0--------0--------0------0------0-----0-----0-----0---0|
g|----6-----6---------6-----6----------------------------------------------3-----3-----3--------|
d|----------------------------------------------------------------------------------------------|
a|----------------------------------------------------------------------------------------------|
E|----------------------------------------------------------------------------------------------|

Riff E
------

e|2------2-----2-----2-----2------------4-----4----------4-----------5---------------6--------|
b|x--------0-----0-----0-----0---0--------0----------0-------0---0---x---0---0---7-------7---0|
g|3---3------3-----3-----3-----3------------4------------------------6-----6---6--------------|
d|--------------------------------------------------------------------------------------------|
a|--------------------------------------------------------------------------------------------|
E|--------------------------------------------------------------------------------------------|

e|5---5-------5-----5-----5--|
b|--0-----0-----0-----0-----0|
g|---------------------------|
d|---------------------------|
a|---------------------------|
E|---------------------------|

Riff F
------
e|0-----0-----0-----0-----0--|
b|--0-----0-----0-----0-----0|
g|----1-----1-----1-----1----|
d|---------------------------|
a|---------------------------|
E|---------------------------|
Comments