Foo Fighters - Walking After You Chords & Tabs

 

Walking After You Chords & Tabs

Foo Fighters Chords & Tabs

Version: 2 Type: Tab 0 ratings
1 star 2 stars 3 stars 4 stars 5 stars
comments

Walking After You Tab

"Walking After You"
recorded by Foo Fighters
written by Dave Grohl
>From the album "the colour and the shape"


I was pretty dissapointed that this song STILL
hadn't been tabbed since it's release
several years ago. So when i finally got round
to learning it, I figured I'd give a
little back to the site that has already given
so much to me. There's already another
version of this song that's in chord, but in my
opinion, this song's got some amazing riffs,
and isn't quite complete unless you fingerpick
the notes. It's a great song, one of
those that you could use to serenade some girl
under a balcony... ^_^

it sounds great whether you use an acoustic or a clean electric.

walking after you by the foo fighters
transcribed by Lisa Chan

intro and verse:

let ring throughout song...
E-4------4-----4--|---0-------0-----|
B-------------0---|-----0-------0---|
G-----------------|-----------------|
D-2----2----2-----|-----------------|
A-----------------|-----------------|
E-----------------|-4------4------4-|



E---------------|-------6-------|-5----5-----5-|
B--------0------|---5------5----|----0---5-----|
G-6---6---------|-----6------6--|--------------|
D---------------|---------------|--------------|
A----7-------7--|---------------|-0--------0---|
E-5--------5----|-6-------------|--------------|



E------5-5---0-|-0-----2-----2/4-----0-----5----4-----2-----0--|
B----0-----0---|----0-----0-------0-----0-----0----0-----0-----|
G--------------|-1-----2-----2/4-----1-----6----4-----2-----1--|
D--------------|-----------------------------------------------|
A-6------------|-----------------------------------------------|
E--------------|-----------------------------------------------|


Chorus:

[ Tab from: http://www.guitartabs.cc/tabs/f/foo_fighters/walking_after_you_tab_ver_2.html ]
(i'm not sure how many times he plays these following riffs, but just
go to the next one when you hear the chord change in the song)

		  if you walk out on..
E----1-----1------1----|
B------0-----0------0--|
G-3------3-----3------3| play continuously until next riff
D----------------------|
A----------------------|
E----------------------|


..me               I'm walking after...
E---0-----0-------|
B-----0-----0-----|
G-2-----2-----2---|keep playing until the next one!
D-----------------|
A-----------------|
E-----------------|


..you
E-------0-------0-----0-----|
B---0-------0-----0-----0---|
G-----1-------1-----1-----1-|
D-2-------------------------|
A---------------------------|
E---------------------------|


                  if you walk out on...
E----1-----1------1----|
B------0-----0------0--|
G-3------3-----3------3| play continuously until next riff
D----------------------|
A----------------------|
E----------------------|

..me          i'm walking after...
E--------0-------0-----0-------|
B----0--------0-----0----------|
G------6--------6-----6--------|
D--7---------------------------|
A------------------------------|
E------------------------------|


..you
E-0-----2-----2/4-----0-----5----4-----2-----0--|
B----0-----0-------0-----0-----0----0-----0-----|
G-1-----2-----2/4-----1-----6----4-----2-----1--|
D-----------------------------------------------|
A-----------------------------------------------|
E-----------------------------------------------|


then repeat the next verse, then the chorus etc etc,
then end with the riff above.


this is my first contribution to Olga, so I'm pretty sure it's
riddled with mistakes. Sorry about that! feel free to email
corrections to me at lisachan81@hotmail.com .
Comments