Foo Fighters - Walking After You Chords & Tabs

 

Walking After You Chords & Tabs

Foo Fighters Chords & Tabs

Version: 1 Type: Bass Tab 0 ratings
1 star 2 stars 3 stars 4 stars 5 stars
comments

Walking After You Bass Tab

   
WALKING AFTER YOU-FOO FIGHTERS
1st part.- 
G \-----------------------------------------------------------------\
D \-----2---2-----6---6-----7---7-----8-----8-----7-----7-----------\
A \-------------------------------------7-----------6---------2---2-\
E \-0-0---0---4-4---4---5-5---5---6-6-----6---5-5-----5---0-0---0---\ 
 
2nd part.- 
G \-----------------------------------------\
D \-----------------------------------------\ 
A \-----------------------------------------\ 
E \-2-2-2-2-2-2-5-5-5-5-5-5-0-0-0-0-0-0-0-0-\ 

This is a correction of Rafael Fong's version

My name is Sean Conaty (Socrstrkr@aol.com)



[ Tab from: http://www.guitartabs.cc/tabs/f/foo_fighters/walking_after_you_btab.html ]
Comments