Foo Fighters - Walking A Line Chords & Tabs

 

Walking A Line Chords & Tabs

Foo Fighters Chords & Tabs

Version: 1 Type: Bass Tab 0 ratings
1 star 2 stars 3 stars 4 stars 5 stars
comments

Walking A Line Bass Tab

   
4 String
Tuning: Standard (E,A,D,G)

This song is amazing, i can't beleive that it wasn't on the CD!

Intro:

G|---------------------------------------------------------------|
D|------8------8------8------8------1098888876666-68-------------|
A|--------56666-678888-876666-68--------------------8888---------|
E|--8888-8----------------------8888-----------------------------|

Verse:

G|---------------------------------------------------------------|
D|----------------------------------1098888876666-68-------------|
A|--------56666-678888-876666-68--------------------8888---------|
E|--8888-8----------------------8888-----------------------------|

Pre-Chorus:

G|-----------------------|
D|-8---8---8888----------|
A|-----------------------|
E|-----------------------|

Chorus:
[ Tab from: http://www.guitartabs.cc/tabs/f/foo_fighters/walking_a_line_btab.html ]
G|------------------------------------------------------------------|
D|-------------------------------------1098888876666-68-------------|
A|--------56666--678888--876666--68--------------------8888---------|
E|--8888-8------8-------8-------8--8888-----------------------------|

Outro:

G|------------------------------------------------------------------|
D|-------------------------------------1098888876666-68-------------|
A|--------56666--678888--876666--68--------------------8888---------|
E|--8888-8------8-------8-------8--8888-----------------------------|

G|-----------------------|
D|-8---8---8888----------|
A|-------------86--------|
E|---------------8hold---|


| /  slide up
| \  slide down
| h  hammer-on
| p  pull-off
| ~  vibrato
| +  harmonic
| x  Mute note

===============================================================================
Comments