Foo Fighters - Virginia Moon Chords & Tabs

 

Virginia Moon Chords & Tabs

Foo Fighters Chords & Tabs

Version: 1 Type: Tab 0 ratings
1 star 2 stars 3 stars 4 stars 5 stars
comments

Virginia Moon Tab

----------------------------------------------------------------------------
			     VIGINIA MOON - Foo Fighters
-----------------------------------------------------------------------------
Tabbed by: Killmerrycafe
Email: mickeyfarrell at yahoo.com

Not much, but it's a start- Listen for the rythym, you know it :)


e|--------|
B|--------| Intro
G|---5----|
D|---6----|
A|-4------|
E|--------|
							   

e|----------------------------------------------------------------|
B|----------------------------------------------------------------|
G|---5----------5---------5--------3---[---5-]--------3-----3-----|Verse
D|---6----------4---------4--------3---[---3-]--------4-----4-----|
A|-4----------3---------2--------1-----[-1---]------2-------4-----|
E|--------------------------------------------------------2-------|
							    *
*unsure of this last chord, play with it a bit (I might be missing a chord in between)

[ Tab from: http://www.guitartabs.cc/tabs/f/foo_fighters/virginia_moon_tab.html ]
"Virginia moon...." bit
e|------------------|
B|------------------| Play this once through the first time, 
G|---3--------3-----| twice the second
D|---4--------4-----|
A|-2----------4-----|
E|---------2--------|


then "In the morning......."
e|-----------------------------------------------------------------|
B|-----------------------------------------------------------------|
G|-----------------------------------------------------------------|
D|-2------5----4---6----5----555---4----------3--------------------|
A|-2------5----4---6----5----555---4----------4--------------------|
E|-0------3----2---4----3----333---2-------2-----------------------|
					  Back into the verse rythym here..


Some parts repeat the "Say goodnight" bit, solo over the verse progression.

Have fun with it, it's not perfect but hopefully it's on the right track. 
Email Flames, suggestions and other whatnots (cash, tunes etc :P)
=============================================================================
Comments