Foo Fighters - Tired Of You Chords & Tabs

 

Tired Of You Chords & Tabs

Foo Fighters Chords & Tabs

Version: 2 Type: Tab 0 ratings
1 star 2 stars 3 stars 4 stars 5 stars
comments

Tired Of You Tab

ok, Tired off the new Foo Fighters album, haven't heard the album yet, but my
friend really recommended me this song, and it is really good, so I decided to
tab it.
not too hard, but now I've said that I've probably got it all wrong.

it's in Drop D tuning.
from what I remember the whole song is palm muted so I'm not gonna indicate that underneath.

|---------------------------------------------------------------
|---------------------------------------------------------------
|---------------------------------------------------------------
|-----5-------5-------5-------5-------5-------5-------5-------5-
|-5-5-5-5-5-5-5-5-5-5-5-5-5-5-5-5-5-5-5-5-5-5-5-5-5-5-5-5-5-5-5-
|-5-5-5-5-5-5-5-5-5-5-5-5-5-5-5-5-5-5-5-5-5-5-5-5-5-5-5-5-5-5-5- x2

|-------------------------------
|-------------------------------
|-------------------------------
|-----3-------3-------3-------3-
|-3-3-3-3-3-3-3-3-3-3-3-3-3-3-3-
|-3-3-3-3-3-3-3-3-3-3-3-3-3-3-3-

|-----------------------------
|-----------------------------
|-----------------------------
|-----1-------1-----0-------0-
|-1-1-1-1-1-1-1-0-0-0-0-0-0-0-
|-1-1-1-1-1-1-1-0-0-0-0-0-0-0-
[ Tab from: http://www.guitartabs.cc/tabs/f/foo_fighters/tired_of_you_tab_ver_2.html ]
|---------------------------------------------------------------
|---------------------------------------------------------------
|---------------------------------------------------------------
|-----5-------5-------5-------5-------5-------5-------5-------5-
|-5-5-5-5-5-5-5-5-5-5-5-5-5-5-5-5-5-5-5-5-5-5-5-5-5-5-5-5-5-5-5-
|-5-5-5-5-5-5-5-5-5-5-5-5-5-5-5-5-5-5-5-5-5-5-5-5-5-5-5-5-5-5-5-

|-------------------------------
|-------------------------------
|-------------------------------
|-----3-------3-------3-------3-
|-3-3-3-3-3-3-3-3-3-3-3-3-3-3-3-
|-3-3-3-3-3-3-3-3-3-3-3-3-3-3-3-

|-----------------------------
|-----------------------------
|-----------------------------
|-----1-------1-----0-------0-
|-1-1-1-1-1-1-1-0-0-0-0-0-0-0-
|-1-1-1-1-1-1-1-0-0-0-0-0-0-0-

|-------------------------------
|-------------------------------
|-------------------------------
|-----5-------5-------5-------5-
|-5-5-5-5-5-5-5-5-5-5-5-5-5-5-5-
|-5-5-5-5-5-5-5-5-5-5-5-5-5-5-5-

|------------------------------------
|------------------------------------
|------------------------------------
|-------10----------10-----5-------5-
|-10-10-10-10-10-10-10-5-5-5-5-5-5-5-
|-10-10-10-10-10-10-10-5-5-5-5-5-5-5- x2

|-----------------------------------------------------------
|-----------------------------------------------------------
|-----------------------------------------------------------
|-----3-------3-----1-------1-----0-------0-------0-------0-
|-3-3-3-3-3-3-3-1-1-1-1-1-1-1-0-0-0-0-0-0-0-0-0-0-0-0-0-0-0-
|-3-3-3-3-3-3-3-1-1-1-1-1-1-1-0-0-0-0-0-0-0-0-0-0-0-0-0-0-0-

that's basically all the riffs from the song played by Dave, I'm not really in
the mood to work out all of the second guitarist's stuff.
but hope that's all right.
Comments