Foo Fighters - Times Like These Chords & Tabs

 

Times Like These Chords & Tabs

Foo Fighters Chords & Tabs

Version: 8 Type: Tab 0 ratings
1 star 2 stars 3 stars 4 stars 5 stars
comments

Times Like These Tab

   
-------------------------------------------------------------------------------
			  Foo fighters- times like these
-------------------------------------------------------------------------------
This is a decent song but there are no decent completed tabs of this song
so here's what I think the song goes like.                  
                                                       R=rhythm guitar
  Intro (1st guitar)
e|-5-5-5-5-5-55-555-55-------------------------------------------------------|
B|-0-0-0-0-0-00-000-00-------------------------------------------------------|
G|-5-5-5-5-5-55-555-55-------------------------------------------------------|
D|---------------------------------------------------------------------------|
A|---------------------------------------------------------------------------|
E|---------------------------------------------------------------------------|

  Finger picking bit (lead),I don't know that it does the bass notes but here they are anyway.
e|---------3p2---------3p2----------3p2----------3p2------------3p2----------|
B|---3p1---------3p1----------3p1----------3p1-----------3p1----------3p1----|
G|---------------------------------------------------------------------------|
D|-0-----0-----0-----0-----0-------------------------------------------------|
A|--------------------------3-----3------3-----3-----3\2-----2------2-----2--|
E|---------------------------------------------------------------------------|
R: D                        C                          B            
                 Before Last time      Last time
e|--3p2--------|---3p2---------3p2---|--5-5-5-5-5-55-555-55-------------------|
B|----------3p1|---------3p1---------|--0-0-0-0-0-00-000-00-------------------|
G|-------------|---------------------|--5-5-5-5-5-55-555-55-------------------|
D|--------0----|-0-----0-----0-----0-|--0-0-0-0-0-00-000-00-------------------|
A|------2------|---------------------|--5-5-5-5-5-55-555-55-------------------|
E|-------------|---------------------|----------------------------------------|
          D                           D(7)
[ Tab from: http://www.guitartabs.cc/tabs/f/foo_fighters/times_like_these_tab_ver_8.html ]
  Verse (picked out chords+I don't think there actually is a rhytm in the verse
but I've put the chord names underneath anyway.)
e|-------2-------------2--------------3-----0-----3------------3--------0----|
B|-----3---3---------3---3----------1---1-----1------------1--------------0--|
G|---2-------2-----2-------2------2-------2-----2--------0---0--------0-----0|
D|-0-----------0-0-----------0--2----------------------2----------2-2--------|
A|---------------------------------------------------3------------2----------|
E|----------------------------------------------------------------0----------|
R:D                             Am7         Am       C            E 
 
 Then              
e|-5-5-5-5-5-55-555-55-------------------------------------------------------|
B|-0-0-0-0-0-00-000-00-------------------------------------------------------|
G|-5-5-5-5-5-55-555-55-------------------------------------------------------|
D|-0-0-0-0-0-00-000-00-------------------------------------------------------|
A|-5-5-5-5-5-55-555-55-------------------------------------------------------|
E|---------------------------------------------------------------------------|

  Chorus (Dave Grohl)
e|-----------00000000--22222222----------------------------------------------|
B|-11111111--00000000--33333333----------------------------------------------|
G|-00000000--00000000--22222222----------------------------------------------|
D|-22222222--22222222--00000000----------------------------------------------|
A|-33333333--22222222--00000000----------------------------------------------|
E|-00000000--00000000--------------------------------------------------------|
   C         Em        D
  
Chorus (Chris Shiflet)
e|---------------------------------------------------------------------------|
B|---------------------------------------------------------------------------|
G|---------------------------------------------------------------------------|
D|----------------------555-0-4----------------------------------------------|
A|-3---------2---------------------------------------------------------------|
E|---------------------------------------------------------------------------|
L.R:--------- ----------

  Last Chorus
e|-----3---------0-------5----------------------------------------------------|
B|-------1-----0---0---3---3--------------------------------------------------|
G|-0-------0---------2-------2------------------------------------------------|
D|---2-------2-------0--------------------------------------------------------|
A|-3---------2----------------------------------------------------------------|
E|-----------0----------------------------------------------------------------|

  End on:
e|---------------|    Thanx a lot. This is not a hard song to play although it 
B|------1--------|    takes along time to get the hang of.
G|------0--------|     
D|------2--------|
A|------3--------|
E|------0--------|


| /  slide up
| \  slide down
| h  hammer-on
| p  pull-off
                         B.L.T= Before last time not bacon,lettuce and tomato.
Order:

Intro        x4
Finger pick  x3
Then         x1
Verse        x1
Then         x1
Verse        x1
Then         x2
Chorus       x4
Then         x2
Verse        x1
Then         x1
Verse        x1
Then         x2
Chorus       x4
Then         x2
Finger pick  x4
B.L.T        x4 (loud)
Chorus       x8
Last Chorus  x4
===============================================================================
Comments