Foo Fighters - Times Like These Chords & Tabs

 

Times Like These Chords & Tabs

Foo Fighters Chords & Tabs

Version: 7 Type: Tab 0 ratings
1 star 2 stars 3 stars 4 stars 5 stars
comments

Times Like These Tab

##-----------------------------PLEASE NOTE-------------------------------##
          This file is the author's own work and represents 
          their interpretation of the song. You may only use 
         this file for private study, scholarship, or research. 
##-----------------------------------------------------------------------##

Tabbed by Charles Benagh (CCBenagh@hotmail.com)

Artist: Foo Fighters
Title: Times Like These
Album: One By One

Equipment: Dave Grohl plays a Dan Armstrong (clear plexiglass) guitar
           through a Mesa/Boogie Dual Rectifier Head w/ 4x12 Recto cab.

Legend:  p - pull off
         h - hammer on
         ^ - bend note
         / or \ - slide
         x# - palm mute

Intro:
e-|---0-5-5-0-5---0-5-5-0-5---0-5-5------||
B-|*--0-0-0-0-0---0-0-0-0-0---0-0-0-----*||
G-|---0-5-5-0-5---0-5-5-0-5---0-5-5------||
D-|---0-0-0-0-0---0-0-0-0-0---0-0-0------||
A-|*--0-5-5-0-5---0-5-5-0-5---0-5-5-----*||
E-|--------------------------------------||

Pre-Verse:
e-|------------------------------------------------||
B-|*----------------------------------------------*||
G-|---------------12-11-------------12-11----------||
D-|------12-10-------------12-10-------------------||
A-|*--------------------------------------12-10---*||
E-|---10-------10-------10-------10----------------||
[ Tab from: http://www.guitartabs.cc/tabs/f/foo_fighters/times_like_these_tab_ver_7.html ]
Verse ("I am a one way motorway..."):
e-|--------0---------------0---------------3---------------3--------------
B-|----3-------3---3---3-------3---3-----------1---1-----------1---1------
G-|------2-------2-------2-------2-----0---------0-----0------------------
D-|--0---------------0-------------------2---------------2----------------
A-|----------------------------------0---------------0-----------2--------
E-|-----------------------------------------------------------------------

e-|--------3------------------------|
B-|-----------------------3---------|
G-|----0-------0------0------0------|
D-|------2-------2------2------2----|
A-|--3------------------------------|
E-|-----------------0---------------|

Chorus ("It's times like these..."):
e-|---0---0-0---0-0---0---0-0---0-0---2---2-2---2-2----|
B-|*--1---1-1---1-1---0---0-0---0-0---3---3-3---3-3---*|
G-|---0---0-0---0-0---0---0-0---0-0---2---2-2---2-2----|
D-|---2---2-2---2-2---2---2-2---2-2---0---0-0---0-0----|
A-|*--3---3-3---3-3---2---2-2---2-2-------------------*|
E-|-------------------0---0-0---0-0--------------------|

Song Structure:
Intro      4x
Pre-verse  9x
Intro      2x
Verse      1x
Intro      1x
Verse      1x
Intro      2x
Chorus     4x
Intro      2x
Verse      1x
Intro      1x
Verse      1x
Intro      2x
Chorus     4x
Pre-Verse  16x
Chorus     8x
Chorus     4x soft arpeggios w/ final C chord

*This is all my own work*
Comments