Foo Fighters - Times Like These Chords & Tabs

 

Times Like These Chords & Tabs

Foo Fighters Chords & Tabs

Version: 2 Type: Tab 1 rating
1 star 2 stars 3 stars 4 stars 5 stars
comments

Times Like These Tab

   
********************************
FOO FIGHTERS - TIMES LIKE THESE
********************************

DISCO: ONE BY ONE (2002)

GUITARRA 1: DAVE GROHL
GUITARRA 2: CHRIS SHIFFLET

AFINACION NORMAL (E-A-D-G-B-e)

* Esta es la versión correcta de Times Like These, hay muchas versiones
erroneas en internet, pero esta es la que usan los Foos en vivo. 
Talvez la parte que toca Shifflet no sea exacta, pero la parte de 
Dave Grohl, es 100% correcta.

*Hecho por JUAN ANGEL DE CAMILLIS.

INTRO
(Grohl)
e|-5-5-5-5-5--5-5-5-5-5-||
B|-0-0-0-0-0--0-0-0-0-0-||
G|-5-5-5-5-5--5-5-5-5-5-||x4
D|-4-4-4-4-4--4-4-4-4-4-||
A|-5-5-5-5-5--5-5-5-5-5-||
E|----------------------||
________________________________________________________

PRE VERSO
(Grohl)
e|-------------------------------------------|
B|-------------------------------------------|
G|-7-7-7-7-7-7-7-7-7-7-7-7-7-7-7-7-7-7-7-7---|
D|-7-7-7-7-7-7-7-7-7-7-7-7-7-7-7-7-7-7-7-7---|
A|-5-5-5-5-5-5-5-5-5-5-5-5-5-5-5-5-5-5-5-5---|
E|-------------------------------------------|

(Shifflet)
e|-------------------------------------------|
B|-------------------------------------------|
G|----------12--11----------12-11------------|
D|--12--10------------12-10------------------|
A|---------------------------------12-10-----|
E|-------------------------------------------|

(Grohl)
e|-------------------------------------------|
B|-------------------------------------------|
G|-5-5-5-5-5-5-5-5-5-5-5-5-5-5-5-5-5-5-5-5---|
D|-5-5-5-5-5-5-5-5-5-5-5-5-5-5-5-5-5-5-5-5---|
A|-3-3-3-3-3-3-3-3-3-3-3-3-3-3-3-3-3-3-3-3---|
E|-------------------------------------------|

(Shifflet)
e|-------------------------------------------|
B|-------------------------------------------|
G|----------12--11----------12-11------------|
D|--12--10------------12-10------------------|
A|---------------------------------12-10-----|
E|-------------------------------------------|

(Grohl)
e|-------------------------------------------|
B|-------------------------------------------|
G|-0-0-0-0-0-0-0-0-0-0-0-0-0-0-0-0-0-0-0-0---|
D|-0-0-0-0-0-0-0-0-0-0-0-0-0-0-0-0-0-0-0-0---|
A|-2-2-2-2-2-2-2-2-2-2-2-2-2-2-2-2-2-2-2-2---|
E|-------------------------------------------|

(Shifflet)
e|-------------------------------------------|
B|-------------------------------------------|
G|----------12--11----------12-11------------|
D|--12--10------------12-10------------------|
A|--------------------------------12-10-(12)-|
E|-------------------------------------------|

* Repitan esta secuencia 4 veces.
(esta nota haganla al final de la cuarta vez)
________________________________________________________________________

INTRO OTRA VEZ
(Grohl-Shifflet)
e|-5-5-5-5-5--5-5-5-5-5-||
B|-0-0-0-0-0--0-0-0-0-0-||
G|-5-5-5-5-5--5-5-5-5-5-||x4
D|-4-4-4-4-4--4-4-4-4-4-||
A|-5-5-5-5-5--5-5-5-5-5-||
E|----------------------||
________________________________________________________________________

VERSO
(Grohl)
e|-2--2--2--2--2-3--3--3--3--3--3-3--3--3--0--0--0--0--|
B|-3--3--3--3--3-1--1--1--1--1--1-1--1--1--0--0--0--0--|
G|-2--2--2--2--x-2--2--2--2--2--2-0--0--0--0--0--0--0--|x2
D|-0--0--0--0--2-2--2--2--2--2--x-2--2--2--2--2--2--2--|
A|-------------0-0--0--0--0--2--3-3--3--3--2--2--2--2--|
E|-----------------------------------------0--0--0--0--|

(Shifflet)
e|-------2--------------3------------------3---------------------------|
B|-----3---3----------1---1--------------1---1----------------3--------|
G|---2-------2------2-------2----------0-------0------------0---0------|
D|-0--------------2-----------2------2-----------2--------2-------2----|
A|--------------0---------------0--3---------------3----2-----------2--|
E|----------------------------------------------------0---------------0|

  "I, i'm a one way motorway..."          "...Follows you back home..."
________________________________________________________________________

INTRO
e|-5-5-5-5-5--5-5-5-5-5-||
B|-0-0-0-0-0--0-0-0-0-0-||
G|-5-5-5-5-5--5-5-5-5-5-||x4
D|-4-4-4-4-4--4-4-4-4-4-||
A|-5-5-5-5-5--5-5-5-5-5-||
E|----------------------||

________________________________________________________________________

VERSO
(Grohl)
e|-2--2--2--2--2-3--3--3--3--3--3-3--3--3--0--0--0--0--|
B|-3--3--3--3--3-1--1--1--1--1--1-1--1--1--0--0--0--0--|
G|-2--2--2--2--x-2--2--2--2--2--2-0--0--0--0--0--0--0--|x2
D|-0--0--0--0--2-2--2--2--2--2--x-2--2--2--2--2--2--2--|
A|-------------0-0--0--0--0--2--3-3--3--3--2--2--2--2--|
E|-----------------------------------------0--0--0--0--|

(Shifflet)
e|-------2--------------3------------------3---------------------------|
B|-----3---3----------1---1--------------1---1----------------3--------|
G|---2-------2------2-------2----------0-------0------------0---0------|
D|-0--------------2-----------2------2-----------2--------2-------2----|
A|--------------0---------------0--3---------------3----2-----------2--|
E|----------------------------------------------------0---------------0|

  "I, i'm street light shining..."          "...burning off and on..."


________________________________________________________________________

INTRO (Grohl - Shifflet)
e|-5-5-5-5-5--5-5-5-5-5-||
B|-0-0-0-0-0--0-0-0-0-0-||
G|-5-5-5-5-5--5-5-5-5-5-||x4
D|-4-4-4-4-4--4-4-4-4-4-||
A|-5-5-5-5-5--5-5-5-5-5-||
E|----------------------||

________________________________________________________________________

ESTRIBILLO
(Grohl)
E|--3--3--3--3---0--0--0---2--2--2--2-----------|
B|--1--1--1--1---0--0--0---3--3--3--3-----------|
G|--0--0--0--0---0--0--0---2--2--2--2-----------| x4
D|--2--2--2--2---2--2--2---0--0--0--0-----------|
A|--3--3--3--3---2--2--2------------------------|
E|---------------0--0--0------------------------|

(Shifflet)
E|------------------------------------------------------------|
G|------------------------------------------------------------|
B|----0---------0----------0--------0---------0------0------0-|
D|--2---2-----2----2-----4---4---2----2-----2---2-----4----4--|
A|-3-----3-----------2--5-----5-3-------3---------2------5----|
E|----------0------------------------------0------------------|

  "...It's times like these you learn to live again..."
[ Tab from: http://www.guitartabs.cc/tabs/f/foo_fighters/times_like_these_tab_ver_2.html ]
________________________________________________________________________

INTRO (Grohl - Shifflet)
e|-5-5-5-5-5--5-5-5-5-5-||
B|-0-0-0-0-0--0-0-0-0-0-||
G|-5-5-5-5-5--5-5-5-5-5-||x4
D|-4-4-4-4-4--4-4-4-4-4-||
A|-5-5-5-5-5--5-5-5-5-5-||
E|----------------------||
________________________________________________________________________

VERSO 2:
(Grohl)
e|-2--2--2--2--2-3--3--3--3--3--3-3--3--3--0--0--0--0--|
B|-3--3--3--3--3-1--1--1--1--1--1-1--1--1--0--0--0--0--|
G|-2--2--2--2--x-2--2--2--2--2--2-0--0--0--0--0--0--0--|x2
D|-0--0--0--0--2-2--2--2--2--2--x-2--2--2--2--2--2--2--|
A|-------------0-0--0--0--0--2--3-3--3--3--2--2--2--2--|
E|-----------------------------------------0--0--0--0--|

(Shifflet)
e|-------2--------------3------------------3---------------------------|
B|-----3---3----------1---1--------------1---1----------------3--------|
G|---2-------2------2-------2----------0-------0------------0---0------|
D|-0--------------2-----------2------2-----------2--------2-------2----|
A|--------------0---------------0--3---------------3----2-----------2--|
E|----------------------------------------------------0---------------0|

  "I, i'm a new day rising..."               "...stars upon tonight..."

________________________________________________________________________

INTRO (Grohl - Shifflet)
e|-5-5-5-5-5--5-5-5-5-5-||
B|-0-0-0-0-0--0-0-0-0-0-||
G|-5-5-5-5-5--5-5-5-5-5-||x4
D|-4-4-4-4-4--4-4-4-4-4-||
A|-5-5-5-5-5--5-5-5-5-5-||
E|----------------------||
________________________________________________________________________

ESTRIBILLO
(Grohl)
E|--3--3--3--3---0--0--0---2--2--2--2-----------|
B|--1--1--1--1---0--0--0---3--3--3--3-----------|
G|--0--0--0--0---0--0--0---2--2--2--2-----------| x4
D|--2--2--2--2---2--2--2---0--0--0--0-----------|
A|--3--3--3--3---2--2--2------------------------|
E|---------------0--0--0------------------------|

(Shifflet)
E|------------------------------------------------------------|
G|------------------------------------------------------------|
B|----0---------0----------0--------0---------0------0------0-|
D|--2---2-----2----2-----4---4---2----2-----2---2-----4----4--|
A|-3-----3-----------2--5-----5-3-------3---------2------5----|
E|----------0------------------------------0------------------|

  "...It's times like these you learn to live again..."

________________________________________________________________________

PUENTE (PARTE 1):
(Grohl)
e|-------------------------------------------|
B|-------------------------------------------|
G|-7-7-7-7-7-7-7-7-7-7-7-7-7-7-7-7-7-7-7-7---|
D|-7-7-7-7-7-7-7-7-7-7-7-7-7-7-7-7-7-7-7-7---|
A|-5-5-5-5-5-5-5-5-5-5-5-5-5-5-5-5-5-5-5-5---|
E|-------------------------------------------|

(Shifflet)
e|-------------------------------------------|
B|-------------------------------------------|
G|----------12--11----------12-11------------|
D|--12--10------------12-10------------------|
A|---------------------------------12-10-----|
E|-------------------------------------------|
 
(Grohl)
e|-------------------------------------------|
B|-------------------------------------------|
G|-5-5-5-5-5-5-5-5-5-5-5-5-5-5-5-5-5-5-5-5---|
D|-5-5-5-5-5-5-5-5-5-5-5-5-5-5-5-5-5-5-5-5---|
A|-3-3-3-3-3-3-3-3-3-3-3-3-3-3-3-3-3-3-3-3---|
E|-------------------------------------------|

(Shifflet)
e|-------------------------------------------|
B|-------------------------------------------|
G|----------12--11----------12-11------------|
D|--12--10------------12-10------------------|
A|---------------------------------12-10-----|
E|-------------------------------------------|

(Grohl)
e|-------------------------------------------|
B|-------------------------------------------|
G|-0-0-0-0-0-0-0-0-0-0-0-0-0-0-0-0-0-0-0-0---|
D|-0-0-0-0-0-0-0-0-0-0-0-0-0-0-0-0-0-0-0-0---|
A|-2-2-2-2-2-2-2-2-2-2-2-2-2-2-2-2-2-2-2-2---|
E|-------------------------------------------|

(Shifflet)
e|-------------------------------------------|
B|-------------------------------------------|
G|----------12--11----------12-11------------|
D|--12--10------------12-10------------------|
A|--------------------------------12-10------|
E|-------------------------------------------|
 
  "...ohhh oohhh..."
________________________________________________________________________

PUENTE (PARTE 2):
(Grohl)
e|-5-5-5-5-5--5-5-5-5-5-||
B|-0-0-0-0-0--0-0-0-0-0-||
G|-5-5-5-5-5--5-5-5-5-5-||x4
D|-4-4-4-4-4--4-4-4-4-4-||
A|-5-5-5-5-5--5-5-5-5-5-||
E|----------------------||

(Shifflet)
e|-------------------------------------------|
B|-------------------------------------------|
G|----------12--11----------12-11------------|
D|--12--10------------12-10------------------|
A|--------------------------------12-10-(12)-|
E|-------------------------------------------|

  "...aahaa..."

________________________________________________________________________

ESTRIBILLO:
(Grohl)
E|--3--3--3--3---0--0--0---2--2--2--2-----------|
B|--1--1--1--1---0--0--0---3--3--3--3-----------|
G|--0--0--0--0---0--0--0---2--2--2--2-----------| x4
D|--2--2--2--2---2--2--2---0--0--0--0-----------|
A|--3--3--3--3---2--2--2------------------------|
E|---------------0--0--0------------------------|

(Shifflet)
e|------------------------------------------------------------|
B|------------------------------------------------------------|
G|----0---------0----------0--------0---------0------0------0-|
D|--2---2-----2----2-----4---4---2----2-----2---2-----4----4--|
A|-3-----3-----------2--5-----5-3-------3---------2------5----|
E|----------0------------------------------0------------------|

  "...It's times like these you learn to live again..."
________________________________________________________________________

OUTRO:
e|------3-3-------------0-0------------2-2------|----|
B|----1-1-1-1-1-------3-3-3-3-3----3-3-3-3-3-3--|----|
G|-0--0-0-0-0-0-0--0--0-0-0-0-0-0--2-2-----2-2--|-0~-|
D|-2--2-----2-2-2--2--2-----2-2-2--0-0-----0----|-2~-|
A|-3--3-----3-3-3--2--2-----2-2-2---------------|-3~-|
E------------------0--0-----0-0-0---------------|----|
                                                   *Nota final

  "...It's times like these you learn to live again..."


JUAN DE CAMILLIS
e-mail:foofighter_akademico@hotmail.com
¡¡Aguante ARGENTINA y LA ACADÉ Carajo!!
Comments