Foo Fighters - Times Like These Chords & Tabs

 

Times Like These Chords & Tabs

Foo Fighters Chords & Tabs

Version: 1 Type: Tab 1 rating
1 star 2 stars 3 stars 4 stars 5 stars
comments

Times Like These Tab

   
artist- foo fighters	
album - one by one
song  - times like these
transcribed by joel hewitt	


standard tuning - E,A,D,G,B,E

x = mute 
/ = slide


intro;

-------5------
-------x------
-------5------
--------------
--------------
--------------

riff guitar 2;

-----------------------------------------------------------
-----------------------------------------------------------
------------------12--11----------------12--11-------------
-------12--10--0----------0--12--10--0---------------------
----0-------------------------------------------12--10--0--
----------------------------------------------------------- repeat

play over riff guitar 1;

------------------------------
------------------------------
-----7----5----0--------------
-----7----5----0--------------
-----5----3----2--------------
------------------------------

fill;

-------5------
-------x------
-------5------
--------------
--------------
--------------

vesre;

----2-----3-----------3---------5-------------------
----3-----1-----1-----1---------x-------------------
----2-----0-----2-----0----0----5-------------------
----------2-----2-----2----2------------------------
----------------------3----2------------------------
----------------------------------------------------repeat

chorus;
[ Tab from: http://www.guitartabs.cc/tabs/f/foo_fighters/times_like_these_tab.html ]
----3---------2----
----1---------3----
----0----0----2----
----2----2---------
----3----2---------
------------------- repeat

vesre;

----2-----3-----------3---------5-------------------
----3-----1-----1-----1---------x-------------------
----2-----0-----2-----0----0----5-------------------
----------2-----2-----2----2------------------------
----------------------3----2------------------------
----------------------------------------------------repeat

chorus;

----3---------2----
----1---------3----
----0----0----2----
----2----2---------
----3----2---------
------------------- repeat

bridge guitar 2;

-------------------------------------------------------------
-------------------------------------------------------------
------------------12--11----------------12--11---------------
-------12--10--0----------0--12--10--0-----------------------
----0-------------------------------------------12--10--12\--
------------------------------------------------------------- repeat

chorus;

----3---------2----
----1---------3----
----0----0----2----
----2----2---------
----3----2---------
------------------- repeat

outro;

----3----3-----------0--------2----2-----
----1------1-----------0------3------3---
----0--------0---0-------0----2--------2-
----2------------2-----------------------
----3------------2-----------------------
-----------------------------------------

end chord;

-3-
-1-
-0-
-2-
-3-
---

this is one of the best songs off the album its great,
if you have any problems with this tab then e-mail me 

mike_einziger@hotmail.com
enjoy   
joel hewitt
Comments