Foo Fighters - Times Like These Chords & Tabs

 

Times Like These Chords & Tabs

Foo Fighters Chords & Tabs

Version: 3 Type: Bass Tab 0 ratings
1 star 2 stars 3 stars 4 stars 5 stars
comments

Times Like These Bass Tab

-----------------------------------------------------------------------------
		Times Like These (Acoustic) - Foo Fighters
-----------------------------------------------------------------------------

This is a very basic Bass part that I tabbed for a beggining Bass player so he could
play along with me.  It's very simple, but sounds good when playing with the acoustic
guitar tabs.  I didn't tab every bit, as it just repeats a lot.  Just listen to the
song a time or two, and you'll have it.

Tabbed By : CorvetteCris

Tuning: Standard, but be sure to tune to your lead guitar, if you have one.

=============================================================================

	Intro
G|--------------------------------------------------------------------------|
D|-0-------------0--------------0-------------------------------------------|
A|--------------------------------------------------------------------------|
E|--------------------------------------------------------------------------|
[ Tab from: http://www.guitartabs.cc/tabs/f/foo_fighters/times_like_these_btab_ver_3.html ]
	Verse
G|--------------------------------------------------------------------------|
D|-0----0---------------------0----0----0-----------------------------------|
A|---------0----0-2-3----------------------0----0-2-3-----------------------|
E|-----------------------0-------------------------------0------------------|
	
	Chorus
G|--------------------------------------------------------------------------|
D|------2----0---------2----0---------2----0---------2----0-----------------|
A|-3--------------3--------------3--------------3---------------------------|
E|--------------------------------------------------------------------------|

	Bridge
G|--------------------------------------------------------------------------|
D|-0--------------0--0--------------0--0--------------0--0--------------0---|
A|------3----2------------3----2------------3----2------------3----2--------|
E|--------------------------------------------------------------------------|

Like I said very basic, but fun to play with a hard-rockin' amigo.  

Enjoy,
Cris

=============================================================================
Comments