Foo Fighters - Times Like These Chords & Tabs

 

Times Like These Chords & Tabs

Foo Fighters Chords & Tabs

Version: 2 Type: Bass Tab 0 ratings
1 star 2 stars 3 stars 4 stars 5 stars
comments

Times Like These Bass Tab

Foo Fighters - "Times Like These"
One By One


Intro
G|-------------------------------------------------------------------------| 
D|-------------------------------------------------------------------------| 
A|-------------------------------------------------------------------------| 
E|-----------------10/-----------------10/----------------10/--------------| 

Riff before 1st verse
G|----------------------------------------------------------------| 
D|----------------------------------------------------------------| 
A|-0\-777777777777-3333333333-2222222222--------------------------| 
E|----------------------------------------------------------------| 

G|----------------------------------------------------------------| 
D|----------------------------------------------------------------| 
A|-777777777777-3333333333-2222222222-----------------------------| 
E|----------------------------------------------------------------| x2

G|----------------------------------------------------------------| 
D|----------------------------------------------------------------| 
A|-77777-77777-777------77777-77777-777---------------------------| 
E|----------------------------------------------------------------| 

Verse riff
G|---------------------------------------------------------------|
D|---------------------------------------------------------------|
A|-777777777777-33333333334-55555-2222222------------------------|
E|---------------------------------------------------------------|

G|---------------------------------------------------------------| 
D|---------------------------------------------------------------| 
A|-77777-77777-777------77777-77777-777--------------------------| 
E|---------------------------------------------------------------| 

G|---------------------------------------------------------------|
D|---------------------------------------------------------------| 
A|-777777777777-33333333334-55555-2222222------------------------|
E|---------------------------------------------------------------| 
[ Tab from: http://www.guitartabs.cc/tabs/f/foo_fighters/times_like_these_btab_ver_2.html ]
G|---------------------------------------------------------------| 
D|---------------------------------------------------------------| 
A|-77777-77777-777------77777-77777-777--------------------------| 
E|---------------------------------------------------------------| 

1st and 2nd Chorus
G|---------------------------------------------------------------| 
D|---------------------------------------------------------------| 
A|-444444-2222222-0000000----------------------------------------| 
E|---------------------------------------------------------------| 

Bridge
G|---------------------------------------------------------------|
D|---------------------------------------------------------------|
A|-77-777-777-7--33-333-333-3-22-222-222-2-----------------------| 
E|---------------------------------------------------------------| x2

G|---------------------------------------------------------------| 
D|--------------0h7898-------------------------------------------|
A|-77-777-777-7-------33-333-333-3-22-222-222-2------------------|
E|---------------------------------------------------------------| 

G|---------------------------------------------------------------| 
D|--------------0h7898-------------------------------------------|
A|-77-777-777-7-------33-333-333-3-22-222-22---------------------|
E|------------------------------------------------------10/------| 

G|---------------------------------------------------------------| 
D|---------------------------------------------------------------| 
A|-77777-77777-777------77777-77777-777--------------------------| 
E|---------------------------------------------------------------| 

Last Chorus
G|---------------------------------------------------------------| 
D|---------------------------------------------------------------| 
A|-44444-22344-00000---------------------------------------------| 
E|---------------------------------------------------------------| 

Outro
G|---------------------------------------------------------------| 
D|---------------------------------------------------------------| 
A|--4*------/2*------/0*-----------------------------------------| 
E|---------------------------------------------------------------|
Comments