Foo Fighters - Times Like These Chords & Tabs

 

Times Like These Chords & Tabs

Foo Fighters Chords & Tabs

Version: 1 Type: Bass Tab 0 ratings
1 star 2 stars 3 stars 4 stars 5 stars
comments

Times Like These Bass Tab

This is a pretty easy bass line to work out so I thought I'd tab it.

  Intro (part 1) it comes in after 2 guitar bars
G|---------------------------------------------------------------------------|
D|---------------------------------------------------------------------------|
A|---------------------------------------------------------------------------|
E|-10\------------10\--------------------------------------------------------|

  Intro (part 2)
G|------------------------------|--------------------------------------------|
D|------------------------------|--------------------------------------------|
A|-5-x16--\3--x16\2--x16-/--x2--|-5-5-5-55-5-5-555-55---------x2-------------|
E|------------------------------|----------------------10\-------------------|
[ Tab from: http://www.guitartabs.cc/tabs/f/foo_fighters/times_like_these_btab.html ]
  Verse
G|------------------------------|-------------------------------------------|
D|------------------------------|-------------------------------------------|
A|-5-x16--\3--x16\2--x16-/------|-5-5-5-55-5-5-555-55-----------------------|x2 
E|------------------------------|----------------------10\------------------|
  (2nd time do 2nd riff twice.)

   Chorus
G|---------------------------------------------------------------------------|
D|---------------------------------------------------------------------------|
A|-3-3-3-3-3-3-3-3\-2-2-2-2-2-2-2-2\-0-0-0-0-0-0-0-0--3-3-3-3-3-3-3-3\-2-2-2-|
E|---------------------------------------------------------------------------|

G|---------------------------------------------------------------------------|
D|---------------------/-555p0/4---------------------------------------------|
A|-2-2-2-2-2\-0-0-0-0-/------------------------------------------------------|
E|---------------------------------------------------------------------------|
  
 That's basically the whole song apart from a few variations that I couldn't
remember. I know it's a s*** tab but it was the best I could do from memory.

Thanx
Comments