Foo Fighters - Time Like These Chords & Tabs

 

Time Like These Chords & Tabs

Foo Fighters Chords & Tabs

Version: 1 Type: Tab 1 rating
1 star 2 stars 3 stars 4 stars 5 stars
comments

Time Like These Tab

   
#----------------------------------PLEASE NOTE---------------------------------#
#This file is the author's own work and represents their interpretation of the #
#song. You may only use this file for private study, scholarship, or research. #
#------------------------------------------------------------------------------#
Tabber: nenno
Foo Fighters
Time Like These

(chords)
D   - xx0232
Am  - x02210
Am7 - x02213
C   - x32010
Em  - 022000
Em7 - 022033

intro: a plain D while hammering the A (2nd fret) on the G sting.
e||---2-2-2---2-----2-----2-----2-2---||
B||o--3-3-3---3-----3-----3-----3-3--o||
G||---0-2-2-0-2---0-2---0-2---0-2-2---||
D||---0-0-0-0-0---0-0---0-0---0-0-0---||
A||o---------------------------------o||
E||-----------------------------------|| 3x


(verse)
   D                Am    Am7
E|-------------------------
A|------------------0-----0
D|-0----------------2-----2
G|-2----------------2-----2
B|-3----------------1-----1
E|-2----------------0-----3

, (I’m a one way motorway ect.)
 
                  C            Em      Em7        D intro 
E|-----------------------------0-------0--------------|
A|----------------3------------2-------2--------------|
D|----------------2------------2-------2----------0---|
G|----------------0------------0-------0----------2---|
B|----------------1------------0-------3----------3---|
E|----------------0------------0-------3----------2---|
 
   D                    Am  Am7
E|-----------------------------
A|----------------------0-----0
D|-0--------------------2-----2
G|-2--------------------2-----2
B|-3--------------------1-----1
E|-2--------------------0-----3
   
                  C                Em      Em7      D intro 
E|---------------------------------0-------0------------|
A|----------------3----------------2-------2------------|
D|----------------2----------------2-------2--------0---|
G|----------------0----------------0-------0--------2---|
B|----------------1----------------0-------3--------3---|
E|----------------0----------------0-------3--------2---|








(chorus)
     C                    Em       Em7     D 
E|------------------------0--------0----------|
A|---3--------------------2--------2----------|
D|---2--------------------2--------2------0---|
G|---0--------------------0--------0------2---|
B|---1--------------------0--------3------3---|
E|---0--------------------0--------3------2---|
It’s times like these you learn to live again
     C                    Em       Em7     D 
E|------------------------0--------0----------|
A|---3--------------------2--------2----------|
D|---2--------------------2--------2------0---|
G|---0--------------------0--------0------2---|
B|---1--------------------0--------3------3---|
E|---0--------------------0--------3------2---|

     C                    Em       Em7     D 
E|------------------------0--------0----------|
A|---3--------------------2--------2----------|
D|---2--------------------2--------2------0---|
G|---0--------------------0--------0------2---|
B|---1--------------------0--------3------3---|
E|---0--------------------0--------3------2---|
[ Tab from: http://www.guitartabs.cc/tabs/f/foo_fighters/time_like_these_tab.html ]
It’s times like these you learn to love again
     C                Em       Em7     D intro
E|--------------------0--------0-----------|
A|---3----------------2--------2-----------|
D|---2----------------2--------2-------0---|
G|---0----------------0--------0-------2---|
B|---1----------------0--------3-------3---|
E|---0----------------0--------3-------2---|
    It’s times like these time and time again


(verse)
   D                Am    Am7
E|-------------------------
A|------------------0-----0
D|-0----------------2-----2
G|-2----------------2-----2
B|-3----------------1-----1
E|-2----------------0-----3
  
                  C              Em    Em7       D intro
E|-------------------------------0------0------------|
A|----------------3--------------2------2------------|
D|----------------2-------------2------2---------0---|
G|----------------0-------------0------0---------2---|
B|----------------1-------------0------3---------3---|
E|----------------0-------------0------3---------2---|
 





   D                 Am   Am7
E|-------------------------
A|------------------0-----0
D|-0----------------2-----2
G|-2----------------2-----2
B|-3----------------1-----1
E|-2----------------0-----

               C            Em     Em7        D intro
E|--------------------------0------0--------------|
A|-------------3------------2------2--------------|
D|-------------2------------2------2----------0---|
G|-------------0------------0------0----------2---|
B|-------------1------------0------3----------3---|
E|-------------0------------0------3----------2---



(chorus)
     C                    Em       Em7     D 
E|------------------------0--------0----------|
A|---3--------------------2--------2----------|
D|---2--------------------2--------2------0---|
G|---0--------------------0--------0------2---|
B|---1--------------------0--------3------3---|
E|---0--------------------0--------3------2---|
It’s times like these you learn to live again X 2
     C                    Em       Em7     D 
E|------------------------0--------0----------|
A|---3--------------------2--------2----------|
D|---2--------------------2--------2------0---|
G|---0--------------------0--------0------2---|
B|---1--------------------0--------3------3---|
E|---0--------------------0--------3------2---|

     C                    Em       Em7     D 
E|------------------------0--------0----------|
A|---3--------------------2--------2----------|
D|---2--------------------2--------2------0---|
G|---0--------------------0--------0------2---|
B|---1--------------------0--------3------3---|
E|---0--------------------0--------3------2---|
It’s times like these you learn to love again
     C                Em       Em7     D intro
E|---------------------0--------0----------|
A|---3-----------------2--------2----------|
D|---2-----------------2--------2------0---|
G|---0-----------------0--------0------2---|
B|---1-----------------0--------3------3---|
E|---0-----------------0--------3------2---|
    It’s times like these time and time again 
e|------------------------------------------|
B|------------------------------------------|
G|----------12--11----------12--11----------|
D|--12--10----------12--10------------------|
A|----------------------------------12--10--|
E|------------------------------------------|
Comments