Foo Fighters - This Is A Call Chords & Tabs

 

This Is A Call Chords & Tabs

Foo Fighters Chords & Tabs

Version: 3 Type: Tab 0 ratings
1 star 2 stars 3 stars 4 stars 5 stars
comments

This Is A Call Tab

   
-------------------------------------------------------------------------------
			     This Is A Call - Foo Fighters
-------------------------------------------------------------------------------
Tabbed by:endeewee

Intro verse :
e|--0-----0--0-----0-----0-----0-----0-----------0--|
B|--0-----0--0-----0-----0-----0-----0-----------0--|
G|--1-----1--1-----1--1--1-----1--1--1-----1--1--0--|
D|--2-----2--2-----2--2--2-----2--2--2-----2--2--0--|
A|--2-----2--2--------2--2--------2--------2--2--0--|
E|--0-----0--0--------0-----------0--------0--0--0--|

this isn't difficult just play it :)

Intro Verse: (continues)
e|-0-----0--0-----0-----0-----0-----0-----0-----------------3--3-----------3-|
B|-0-----0--0-----0-----0-----0-----0-----0-----0-----------3--3-----------3-|
G|-1-----1--1-----1--1--1-----1--1--1-----1--1--0-----0-----0--0-----0--0--0-|
D|-2-----2--2-----2--2--2-----2--2--2-----2--2--0-----0-----0--0-----0--0--0-|
A|-2-----2--2--------2--2--------2-----------2--2-----2-----2--------2--2----|
E|-0-----0--0--------0-----------0-----------0--0-----3-----3-----------3----|


e|-------3--------------------------0-----0-----0----------3--3--------------|
B|-3--3--3-----2--2--0-----------0--0-----0-----0----------3--3--0-----------|
G|-0--0--0-----2--2--0-----------1--1-----1--1--1----------4--4--0-----------|
D|-0--0--0-----2--2--0-----2-----2--2-----2--2--2----------5--5--0-----------|
A|-2--2--------0--0--0-----2-----2-----------2--2----------5--5--0-----------|
E|-3--3--------------------0-----0-----------0--0----------3--3--------------|

Just own this 2 bars with up and downstrokes

Distorted verse: (0:18)

e|-0-----0--0----0--0--0-----0--0--0-----0--0--0-----0-----0--0-----0--0--0--|
B|-0-----0--0----0--0--0-----0--0--0-----0--0--0-----0-----0--0-----0--0--0--|
G|-1-----1--1----1--1--1-----1--1--1-----1--1--1-----1-----1--1-----1--1--1--|
D|-2-----2--2----2--2--2-----2--2--2-----2--2--2-----2-----2--2-----2--2--2--|
A|-2-----2--2----2--2--2-----2--2--2-----2--2--2-----2-----2--2-----2--2--2--|
E|-0-----0--0----0--0--0-----0--0--0-----0--0--0-----0-----0--0-----0--0--0--|

e|-0--0--0-----0--0----------------------------------------------------------|
B|-0--0--0-----0--0--0-------------------------------------------------------|
G|-1--1--1-----1--1--0-------------------------------------------------------|
D|-2--2--2-----2--2--O-------------------------------------------------------|
A|-2--2--2-----2--2--O-------------------------------------------------------|
E|-0--0--0-----0--0----------------------------------------------------------|

e|-3-----3--3-----3--3--3-----3--3--3-----------------0-----0--0-----0--0--0-|
B|-3-----3--3-----3--3--3-----3--3--3-----2--2--0-----0-----0--0-----0--0--0-|
G|-4-----4--4-----4--4--4-----4--4--4-----2--2--0-----1-----1--1-----1--1--1-|
D|-5-----5--5-----5--5--5-----5--5--5-----2--2--0-----2-----2--2-----2--2--2-|
A|-5-----5--5-----5--5--5-----5--5--5-----0--0--0-----2-----2--2-----2--2--2-|
E|-3-----3--3-----3--3--3-----3--3--3-----------------0-----0--0-----0--0--0-|

e|-0--0--0-----0--0--0-------------------------------------------------------|
B|-0--0--0-----0--0--0-------------------------------------------------------|
G|-1--1--1-----1--1--1-------------------------------------------------------|
D|-2--2--2-----2--2--2-------------------------------------------------------|
A|-2--2--2-----2--2--2-------------------------------------------------------|
E|-0--0--0-----0--0--0-------------------------------------------------------|

If you can play the intro , this wouldn't be a problem

Chorus 1: (0:32)

       let ring troughout
e|-------0-----------0-----------0-----------0-----------0-----------0-------|
B|-------------0-----------------------0-----------------------0-------------|
G|-3--------------3--------2--------------2--------1--------------1----------|
D|---------------------------------------------------------------------------|
A|---------------------------------------------------------------------------|
E|---------------------------------------------------------------------------|

Repeat this part a few times than:
[ Tab from: http://www.guitartabs.cc/tabs/f/foo_fighters/this_is_a_call_tab_ver_3.html ]
e|---------------------------------------------------------------------------|
B|------------------------------0--------------------------------------------|
G|------------------------------0--------------------------------------------|
D|------------------------------0--------------------------------------------|
A|---------------------------------------------------------------------------|
E|-0--0--0--0--0--0--3-------------------------------------------------------|

                    Pull the 3 up 1/4

Chorus 2: (1:06)
      let ring troughout again
e|----------0-----------------------0--------------------------0-------------|
B|-------0--------0--------------0--------0-----0-----------0--------0-----0-|
G|-3-----------------3-----2-----------------2--------1-----------------1----|
D|---------------------------------------------------------------------------|
A|---------------------------------------------------------------------------|
E|---------------------------------------------------------------------------|

Repeat this part a few times than:

e|----------0--------------------------0-------------------------------------|
B|-------0--------0-----0-----------0--------0-------------------------------|
G|-3-----------3-----3--------2----------------------------------------------|
D|---------------------------------------------------------------------------|
A|---------------------------------------------------------------------------|
E|-------------------------------------------------3-------------------------|
                                                   pull the last 3 up 1/4

Bridge Riff: (1:22)

e|---------------------------------------------------------------------------|
B|---------------------------------------------------------------------------|
G|----------7-----------------4-----7----------------------7-----------------|
D|----------6-----0--2--0-----4-----7--7--5--5--5----------6-----------2--0--|
A|----------7--------2--0-----2-----5--7--5--5--5----------7-----------2--0--|
E|-0--0--------------4--0--------------5--3--3--3-----0--0-------0--3--4--0--|

e|---------------------------------------------------------------------------|
B|---------------------------------------------------------------------------|
G|-4-----4/7-----------------------------------------------------------------|
D|-4-----4/7--7--------------------------------------------------------------|
A|-2-----2/5--7--------------------------------------------------------------|
E|------------5------14\-----------------------------------------------------|

e|---------------------------------------------------------------------------|
B|---------------------------------------------------------------------------|
G|----------7--------------------4-----7-------------------------------------|
D|----------6--------5--6--2-----4-----7--7--5--5--5-------------------------|
A|----------7--------5--6--2-----2-----5--7--5--5--5-------------------------|
E|-0--0-----------0--3--4--0--------------5--3--3--3-------------------------|
Repeat thisone a few times

outro riff: (3:40)
e|---------------------------------------------------------------------------|
B|---------------------------------------------------------------------------|
G|---------------------------------------------------------------------------|
D|---------------------------------------------------------------------------|
A|-------5--------5--4--5----------------------------------------------------|
E|-0--0-----0--0-------------------------------------------------------------|
just repeat...

e|---------------------------------------------------------------------------|
B|---------------------------------------------------------------------------|
G|---------------------------------------------------------------------------|
D|---------------------------------------------------------------------------|
A|-------11--------11--10--11------------------------------------------------|
E|-0--0------0--0------------------------------------------------------------|
keep it up youre almost there , repeat this

e|--------------------3------------------------------------------------------|
B|--------------------3------------------------------------------------------|
G|--------------------0------------------------------------------------------|
D|--------------------0-----------2--2---------------------------------------|
A|-------11-----------2-----------2--2---------------------------------------|
E|-0--0------0--0-----3-----------0--0---------------------------------------|

| /  slide up
| \  slide down
| h  hammer-on
| p  pull-off
| ~  vibrato
| +  harmonic
| x  Mute note
===============================================================================
Comments