Foo Fighters - This Is A Call Chords & Tabs

 

This Is A Call Chords & Tabs

Foo Fighters Chords & Tabs

Version: 2 Type: Tab 0 ratings
1 star 2 stars 3 stars 4 stars 5 stars
comments

This Is A Call Tab

Artist: Foo Fighters
Song: This Is A Call
Album: Foo Fighters


This is track numero uno on the Foo's first album. Really cool too.

Intro/Verse

e||--0-------0------3-------------0-------3-3----0--|
B||--0-------0------3------2------0-------3-3----0--|
G||--1-------1------0------2------1-------0-0----1--|
D||--2-------2------0------2------2-------0-0----2--|
A||--2-------2------2------0------2-------2-2----2--|
E||--0-------0------3-------------0-------3-3----0--|


Chorus

e||--2---------0-------0------2----0---0----3--|
B||--2---------2-------0------2----2---0----3--|
G||--3---------2-------1------3----2---1----0--|
D||--4---------2-------2------4----2---2----0--|
A||--4---------0-------2------4----0---2----2--|
E||--2-----------------0------2--------0----3--|

[ Tab from: http://www.guitartabs.cc/tabs/f/foo_fighters/this_is_a_call_tab_ver_2.html ]
Bridge
e||---------------------------------------|
B||------------------------4---7----------|
G||---------7--------------4---7----------|
D||---------6----5-6-2-----4---7----5--5--|
A||---------7----5-6-2-----2---5----5--5--|
E||--0--0---0----3-4-0-----2---5----3--3--|


Outro/Solo thingy
e||----------------------------------------------------------------------------|
B||----------------------------------------------------------------------------|
G||----------------------------------------------------------------------------|
D||----------------------------------------------------------------------------|
A||----------------------------------------------------------------------------|
E||-0--0--10---0--0--10-9-10--0--0--10--0-0--10-9-10--0--0--16--0--0--16-15-16-|

e|-----------------------------------------------------------|
B|-----------------------------------------------------------|
G|-----------------------------------------------------------|
D|-----------------------------------------------------------|
A|------------------------------------------5-------2-----2--|
E|-16-0--0--16-0-0-16-15-16--0--0-16-0--0---3-------0-----0--|

And thats it.  Questions? "incubusdude17@hotmail.com"
Comments