Foo Fighters - This Is A Call Chords & Tabs

 

This Is A Call Chords & Tabs

Foo Fighters Chords & Tabs

Version: 3 Type: Bass Tab 0 ratings
1 star 2 stars 3 stars 4 stars 5 stars
comments

This Is A Call Bass Tab

   
Band: Foo Fighters
Song: This Is A Call
Tabbed By: lord_of_the_bin

(Normal Tuning)
Verse:
g:--------------------------
d:--------------------------
a:-----7-7---7-7---7------5-
e:-0-0-----0-----0----0-7---

g:---------------------
d:---------------------
a:-----7-7---7-7---7-7-
e:-0-0-----0-----0-----

g:-----------------------------------------------
d:-----------------------------------------------
a:-----------------------------------------------
e:-3-3-3-3-3-3-3-3-3-3-5-5-5-0-0-0-0-0-0-0-0-0-0-
[ Tab from: http://www.guitartabs.cc/tabs/f/foo_fighters/this_is_a_call_btab_ver_3.html ]
Chorus:
g:-----------------------------------------------------
d:-----------------------------------------------------
a:-----------------------------------------------------
e:-2-2-2-2-2-2-2-2-5-5-5-5-5-5-5-5-5-0-0-0-0-0-0-0-0-0-

g:-----------------------------------
d:-----------------------------------
a:-----------------------------------
e:-2-2-2-2-2-2-2-2-5-5-5-5-5-5-5-5-5-

Bridge:
g:-----------------------
d:-----------------------
a:------7--------2-5-----
e:-0-0-----3-4-5-----3-3-

Sexy Outro Part:
g:-----------------
d:-----------------
a:-----5-----5-4-5-
e:-0-0---0-0-------
Comments